Song name
# A B C D E F G H I J K L M N O P Q R S T U V W X Y Z

Black Label Society - Say What You Will tab


    BLACK LABEL SOCIETY RULES!!!
                                   this is my first tab so dont sceam at me....
          standerd tuning (e b g d a e)

e------------------------------------------------------------------|       
b19//-----------------------------17-------------------/17\--------|
g-----------------------------------16/\--16--14h16-16/-16-\16-14~~|
d-------14h16-16-14-16~-14h16~-14-------16--16---------------------|
a------------------------------------------------------------------|
e------------------------------------------------------------------|


e--------------------------------------------|----------------------|
b-17^~~-------------------------17-----------| 19p14-17p14----------|
g---------------------------------16/\--16-14|------------14^----x3-|
d------14h16-16-14-16~-14h16~-14------16-----|----------------------|
a--------------------------------------------| ---------------------|
e--------------------------------------------|----------------------|


e-------------------------------------------------------------------|
b----14------------------------12h13p12h13-15h16p15h16-17h19p17h17--|
g--16^-16^-14~~~~~-12h13p12h13--------------------------------------|
d-------------------------------------------------------------------|
a-------------------------------------------------------------------|
e-------------------------------------------------------------------|


e-15h16p15h16-16h18p16h18p16-18^~~--19-18--18--16-------------------|
b----------------------------------------19--19---19-18-16---14-14--|
g---------------------------------------------------------18^-------|
d-------------------------------------------------------------------|
a-------------------------------------------------------------------|
e-------------------------------------------------------------------|


e-------------------------19^-----------18^-19p18p16--18--16--------|
a----14--------------17-19---------17-19------------19--19--19-18-16|
g-16^--16^-14~~-17-19--------17-19----------------------------------|
d-------------------------------------------------------------------|
a-------------------------------------------------------------------|
e-------------------------------------------------------------------|


e-------------------------------------------------------------------|
a-19^~~~~--19p16--x12-----------------------------------------------|
b----------------------19~~~~~~-------------------------------------|
g-------------------------------------------------------------------|
d-------------------------------------------------------------------|
a-------------------------------------------------------------------|
Tap to rate this tab
 
# A B C D E F G H I J K L M N O P Q R S T U V W X Y Z