Song name
# A B C D E F G H I J K L M N O P Q R S T U V W X Y Z

Black Label Society - Steppin Stone tab

Artist: Black Label Society
Album: Hangover Music Volume VI
Title: Steppin' Stone

From: www.BlackLabelSociety.net

Tabbed By: CJPemberton (ZakkWyldeJr)

Tuning:
	Electric = Standard Drop D (DADGBE)
        Acoustic = Standard (EADGBE)

Intro / Verse x 4
  Electric
E||--------------------|------------------|------------------|-------------------|
B||--------------------|------------------|------------------|-------------------|
G||*-------------------|------------------|------------------|------------------*|
D||*--3----------------|------------------|------------------|------------------*|
A||---3----------------|------------------|------------------|-------------------|
D||---3----------------|------------------|------------------|-------------------|

   Acoustic Overdub's
E||---8----------------|--6----------------|--4--------3-----|-------------------|
B||---6----------------|--4----------------|--2--------1-----|--6----------------|
G||*--5----------------|--3----------------|--1--------0-----|--5---------------*|
D||*-------------------|-------------------|-----------------|--3---------------*|
A||--------------------|-------------------|-----------------|-------------------|
E||--------------------|-------------------|-----------------|-------------------|

  Acoustic Rhythm (listen to song for rhythm)
E||--------------------|-------------------|-----------------|-------------------|
B||---9----------------|-------------------|-----------------|-------------------|
G||*--10---------------|--8----------------|--6--------5-----|------------------*|
D||*--10---------------|--8----------------|--6--------5-----|--3---------------*|
A||---8----------------|--6----------------|--4--------3-----|--3----------------|
E||--------------------|-------------------|-----------------|--1----------------|


Chorus
  Electric
E||-------------------|-------------------|-------------------|-------------------|
B||-------------------|-------------------|-------------------|-------------------|
G||--6----------------|-------------------|-------------------|-------------------|
D||--6----------------|--3----------------|--1----------------|--3----------------|
A||--4----------------|--3----------------|--1----------------|--3----------------|
D||-------------------|--3----------------|--1----------------|--3----------------|

    Electric Overdub

--------------------|-------------------|-------------------|-------------------|
--------------------|-------------------|-------------------|-------------------|
--6------------6/---|--10----------13/--|--12------------8/-|--10~-------8~-----|
--------------------|-------------------|-------------------|-------------------|
--4------------4/---|--8-----------11/--|--10------------6/-|--8~--------6~-----|
--------------------|-------------------|-------------------|-------------------|

    Electric
|-------------------|-------------------|-------------------|-------------------|
|-------------------|-------------------|-------------------|-------------------|
|--6----------------|-------------------|-------------------|-------------------|
|--6----------------|--3----------------|--1----------------|-------------------|
|--4----------------|--3----------------|--1----------------|-------------------|
|-------------------|--3----------------|--1----------------|-------------------|
    Electric Overdub
|-------------------|-------------------|-------------------|-------------------|
|-------------------|-------------------|-------------------|-------------------|
|--6-----------6/---|--10----------13/--|--12---------------|--8~---------------|
|-------------------|-------------------|-------------------|-------------------|
|--4-----------4/---|--8-----------11/--|--10---------------|--6~---------------|
|-------------------|-------------------|-------------------|-------------------|

Intro / Verse x 4
Chorus
Intro / Verse x 2

Solo
G#                                         F
|-------------------|---------------------|--------------------|-------------------|
|-------------------|---------------------|--------------------|-------------------|
|-------------------|---------------------|--------------------|-------------------|
|--8b---------------|--8r-----------------|--------------------|-------------------|
|-------------------|-----------------8/6/|--8------------6r---|----------5~-------|
|-------------------|---------------------|--------------------|-------------------|

G#                                         F
-------------------|---------------------|--------------------|------------------|
-------------------|---------------------|--------------------|------------------|
-------------------|---------------------|--------------------|------------------|
--8b---------------|--8r-----------------|--------------------|------------------|
-------------------|-----------------8/6/|--8------------6r---|------------------|
-------------------|---------------------|--------------------|------------------|


  A#
|----------------13-15-16--|----------15h16h15h13h15-------|
|--16b---------------------|-------------------------------|
|--------------------------|-------------------------------|
|--------------------------|-------------------------------|
|--------------------------|-------------------------------|
|--------------------------|-------------------------------|


  D#
--13----13-16-13----13-16-13----13-16-13----13-------13-------13-------13-------|
-----16----------16----------16----------16----16-13----16-13----16-13----16-13-|
--------------------------------------------------------------------------------|
--------------------------------------------------------------------------------|
--------------------------------------------------------------------------------|
--------------------------------------------------------------------------------|


                                                                          PH
--------------------------------------------------------------------------------|
--13----13-16-13----------------------------------13-16-13----------------------|
-----15----------15-13-15-13----13-15-13----13-15----------15-13-15-13----15~---|
-----------------------------15----------15----------------------------15-15~---|
--------------------------------------------------------------------------------|
--------------------------------------------------------------------------------|

--13----------------|
--16b---------------|
--------------------|
--------------------|
--------------------|
--------------------|


Chorus									       x3
|-------------------|-------------------|-------------------|-------------------|
|-------------------|-------------------|-------------------|-------------------|
|*-6----------------|-------------------|-------------------|------------------*|
|*-6----------------|--3----------------|--1----------------|--3---------------*|
|--4----------------|--3----------------|--1----------------|--3----------------|
|-------------------|--3----------------|--1----------------|--3----------------|


Intro / Verse x 4
End on F
Tap to rate this tab
 
# A B C D E F G H I J K L M N O P Q R S T U V W X Y Z