Guitaretab - guitar tabs
Song name
# A B C D E F G H I J K L M N O P Q R S T U V W X Y Z

Black Label Society - Last Goodbye tab

The Last Goodbye (SOLO)-Black label Society
Awesome song, but all the solo tabs are either wrong or donít cover the whole thing.


KEY!
~ : Vibrato. This is very important on this song.
. : Staccato, stop the note immediately after playing.
\ : sliiide down...
/ : sliiide up!
h : hammer-on, donít play the second note.
p : pull-off, same as above.
* : indicates the scratchy thing in the beginning of the solo (explained below).
b(number) : bend. Bend the string up to the indicated fret.


To get the sadish sound, turn the mid and high on your eq  down a bit, then turn both 
all the way down but put the tones to top. that should make it sound goood and melancholy.

e|----------------------------------|
b|----------------------------------|
g|----------------------------------|
d|----------------------------------|
a|-12\\\\\\\3/*/*/*/*/*/*/*/*/*/*/--|
E|----------------------------------|
On this first note, slide as far down the neck as you want, 3rd fret seems to sound the
On the way back up, find some way to do the choppy sound. I tap the pick edge against
string. After that it goes into this:

(Vibrato. Like as much as your fingers can take)
e|--------/17~16~14~12~-------/17~16~14~-16b17---|
b|---------------------14~12~--------------------|
g|-----------------------------------------------|
d|-----------------------------------------------|
a|-----------------------------------------------|
E|-----------------------------------------------|

                            (slow releases)
e|---/17~16~14~12--15b17===\14~---------------------------------------|
b|--------------------------------------------------------------------|
g|----------------------------------12b14==12~~~----------------------|
d|--------------------------------------------------------------------|
a|--------------------------------------------------------------------|
E|--------------------------------------------------------------------|


e|--/17~16~14~12~--------/17~16~14~12--19b21~~~-/17~16~14~12-15b17----|
b|---------------14~12------------------------------------------------|
g|--------------------------------------------------------------------|
d|--------------------------------------------------------------------|
a|--------------------------------------------------------------------|
E|--------------------------------------------------------------------|
[ Tab from: http://www.guitaretab.com/b/black-label-society/148777.html ]
e|--------------------------------------------------------------------|
b|--------------------------------~-----------------------------------|
g|-12/14~12~~~~-(do some random hammers and pulls here)---------------|
d|--------------------------------------------------------------------|
a|--------------------------------------------------------------------|
E|--------------------------------------------------------------------|

And then the vocals come in...

e|--------------------------------------------------------------------|
b|--------------------------------------------------------------------|
g|--------13~-------13~--------13h14-------13~-------13~-------13h14--|
d|--14h16-----14h16------14h16-------14h16-----14h16-----14h16--------|
a|--------------------------------------------------------------------|
E|--------------------------------------------------------------------|
      Take this love....                 Take This life....

e|--------------------------------------------------------------------|
b|--------------------------------------------------------------------|
g|--------13~-------13~--------13h14-------13~-------13~-------13h14--|
d|--14h16-----14h16------14h16-------14h16-----14h16-----14h16--------|
a|--------------------------------------------------------------------|
E|--------------------------------------------------------------------|
       Take this blood......            Itíll never die.........

e|--------------------------------------------------------------------|
b|--------------------------------------------------------------------|
g|--------13~-------13~--------13h14-------13~-------13~-------13h14--|
d|--14h16-----14h16------14h16-------14h16-----14h16-----14h16--------|
a|--------------------------------------------------------------------|
E|--------------------------------------------------------------------|
       Take this love....               Take this life......

e|--------------------------------------------------------------------|
b|--------------------------------------------------------------------|
g|--------13~-------13~--------13h14-------13~-------13~--------------|
d|--14h16-----14h16------14h16-------14h16-----14h16-----14h16--------|
a|--------------------------------------------------------------------|
E|--------------------------------------------------------------------|
           Take this blood......     Itíll never die.......
			     (Slight
				   Feedback)
e|------------------------------------------|
b|------------------------------------------|
g|---13h14----------------------------------|
d|-----------14h16-16b17~--14~~~~~~~~~~~~~~-|
a|------------------------------------------|
E|------------------------------------------|
   This ainít the last goodbye....
Related for Last Goodbye tab