Song name
# A B C D E F G H I J K L M N O P Q R S T U V W X Y Z

Black Label Society - Whiter Shade Of Pale tab

Intro:
E||--0------------0--3-----|--------------------0-----|
B||--1------1--0--------0--|-----3--1--0--1--3-----1--|
G||--0---------------------|--2-----------------------|
D||--2---------------------|--------------------------|
A||--3---------3--------3--|--3-----------3-----------|
E||------------------------|--------------------------|



--1----------------7--8--|--------------------------|5s7----------7--8--10--|
--1----------------------|--6-5-6--------------3----|-----------------------|
--2----------------4--5--|-------------------2------|-------------4---------|
--3------3--2--2-3-------|--3-2-3----0-----3--------|-------5--3------------|
-------------------------|--------------3-----------|-----------------------|
-------------------------|--------------------------|-----------------------|



-----------------------|-------------------------|--------------------------|
--------------6--5--6--|-6--5--3--------3--5--6--|-------3--5-5s6--5----6-3-|
-----------------------|----------5--2-----------|-4--5---------------------|
-5-3-5--2--0--3--2--3--|-3--2--0-----3--0--2--3--|-------0--2-2s3--2----3-0-|
-----------------------|----------3--------------|-2--3---------------------|
-----------------------|-1-----------1-----------|--------------------------|

Verse:
          We skipped the light fandango
--0-----0--3--0--0--3-----|--0---------0-------0----|
--1--1--------0--------0--|--1---------1--1---------|
--0-----------1-----------|--2------2--0---------0--|
--2-----------2-----------|--2---------2-----2------|
--3-----------2-----------|--0---------3-----3------|
--------------0-----------|------------3------------|


           Turned cartwheels 'cross the floor
--1-----------0-----------|--1---------1-------1----|
--1-----------1-----------|--3----3----1--1---------|
--2-----------2-----------|--2---------2---------2--|
--3-----------2--------2--|--0-------0-3-----3------|
--3-----------0-----------|------------3-----3------|
--------------------------|-------------------------|


           I was feeling kind of seasick
--3-----------1-----------|--0---------3------------|
--0-----------1-----------|--0----0----3--3----0----|
--0--------0--2-----------|--1---------0------------|
--0-----------3--------3--|--2-------2-0-----0---0--|
--2-----------3-----------|--2---------2-----2------|
--3-----------------------|--0---------3-----3------|


           The crowd called out for more
--0-----------0-----------|--0----0----0-------0----|
--1-----------0-----------|--1---------1--1---------|
--0-----------1-----------|--2---------0---------0--|
--2-----------2-----------|--2---------2-----2------|
--3-----------2-----------|--0---------3-----3------|
--------------0-----------|-------------------------|


           And the room was hummin' harder
--1-----------0-----------|--1---------1-------1----|
--1-----------1-----------|--3---------1--1---------|
--2-----------2-----------|--2---------2---------2--|
--3-----------2-----------|--0------0--3-----3------|
--3-----------0-----------|------------3-----3------|
--------------------------|-------------------------|


           As the ceiling flew away
--3-----------1-----------|--0---------3------------|
--0-----------1-----------|--0----0----3--3----0----|
--0-----------2-----------|--1---------0------------|
--0-----------3-----------|--2------2--0-----0---0--|
--2-----------3-----------|--2---------2-----2------|
--3-----------------------|--0---------3-----3------|


          We called outfor another drink
--0-----------0----3------|--0----0----0-------0----|
--1-----------0-------0---|--1---------1--1---------|
--0-----------1-----------|--2------2--0---------0--|
--2-----------2-----------|--2---------2-----2------|
--3-----------2-----------|--0---------3-----3------|
--------------0-----------|-------------------------|


          But the waiter brought a tray, and so it
--1-----------0-----------|--1-------1--3----0------|
--1-----------1----1------|--3----3-----0----1---0--|
--2-----------2-----------|--2----------0----2---0--|
--3-----------2-----------|--0----------0----2---0--|
--3-----------0-----------|-------------2----0---2--|
--------------------------|-------------3--------3--|

Chorus:
was         that          later                            
--0-----------0----3-----|--0----0-----0-------0----|
--1-----------0-------0--|--1----------1--1---------|
--0-----------1----------|--2-------2--0---------0--|
--2-----------2----------|--2----------2-----2------|
--3-----------2----------|--0----------3-----3------|
-------------------------|--------------------------|

As the miller told his tale
--1-----------0-----------|--1---------1-------1---|
--1-----------1-----------|--3---------1--1--------|
--2-----------2-----------|--2---------2---------2-|
--3-----------2-----------|--0------0--3-----3-----|
--3-----------0-----------|------------3-----3-----|
--------------------------|------------------------|



         That her face was kinda ghostly      
--3----------1-----------|--0----------3------------|
--0----------1-----------|--0----0-----3--3----0----|
--0------0---2-----------|--1----------0------------|
--0----------3------3----|--2-------2--0-----0---0--|
--2----------3-----------|--2----------2-----2------|
--3----------------------|--0----------3-----3------|

turned   a whiter    shade of     pale
--1----1------1-----1-1----|--0------0---3----3----|
--1------1----1--1--1-1----|--1----------3---------|
--2--------2--2---------2--|--0--------0-0---------|
--3-----------3------------|--2--------2-0---------|
--3-----------3------------|--3--------3-2---------|
---------------------------|-------------3---------|


Intro

2nd Verse:
She said: "There is no reason,
And the truth is plain to see."
But I wander through my playin' cards
Would not let her be
One of the sixteen vestal virgins
Who were leaving for the coast
And although my eyes were open
They might just as well been closed

Chorus

Intro

Chorus

Intro

Tap to rate this tab
# A B C D E F G H I J K L M N O P Q R S T U V W X Y Z