Song name
# A B C D E F G H I J K L M N O P Q R S T U V W X Y Z

Black Label Society - Whats In You tab

Artist: Black Label Society
Album: Mafia
Title: What's In You

Tabbed By: Mraksel

Tuning: CGCFAD

                                            PH   PH
        1/4  1/4  1/4  1/4 1/4              1/4  1/4     PH
        |-|  |-|  |-|  |-| |-|              |-|  |-|     |-|
|-------------------------------|   |-------------------------|
|-------------------------------|   |-------------------------|
|-------------------------------|   |-------------------------|
|-------------------------------|3x |-------------------------|
|--5p3---3b---3b---3b---3b--3b--|   |--5p3---3b---3b------3~--|
|------0----0----0----0---------|   |------0----0----0--0-----|
                                                                 
        1/4  1/4   PS                  PM                                       
        |-|  |-|   |-|                 |-------|                                         
|---------------------|   |---------------------------------------------|
|---------------------|   |---------------------------------------------|
|---------------------|   |---------------------------------------------|
|---------------------|   |-7--5---7--5-----------7--5---7--6--5--------|2x
|--5p3---3b---3b----/-|   |-5--3---5--3-----------5--3---5--4--3--------|
|------0----0----0--/-|   |-------------0-0-0-0------------------5/20\--|

  Full Full Full Full                                                               
  |--| |--| |--| |--|                                                                
|------------------------------------------------------------------|
|--------------------------10-13--10h13p10--10---------------------|
|--12b--12b--12b--12b--12~----------------13--13-12-10--10-12-12~--|
|-----------------------------------------------------12-----------|
|------------------------------------------------------------------|
|------------------------------------------------------------------|

  Full Full Full Full     Full        Full        Full        Full                           
  |--| |--| |--| |--|     |--|        |--|        |--|        |--|                           
|---------------------------------------------------------------------------|
|--------------------------13br--(13)--13br--(13)--13br--(13)--13br--(13~)--|
|--12b--12b--12b--12b--12~--------------------------------------------------|
|---------------------------------------------------------------------------|
|---------------------------------------------------------------------------|
|---------------------------------------------------------------------------|
                                                                               
                               1/2                                     
                               |--|                                             
|--10--17--17-17--16-16--15-15--13--15-------------------------------------|
|-----------------------------------15--13--15--13-------------------------|
|-----------------------------------------14--14--14/12p10--12--10-12-10~--|
|---------------------------------------------------------12--12-----------|
|--------------------------------------------------------------------------|
|--------------------------------------------------------------------------|



|---------------------------------------------------10h13p10h13--13h16p13--16h19p16\--|
|---------------------------------------12h15p12h15-----------------------------------|
|----------------7h10p7h10--10h13p10h13-----------------------------------------------|
|--------6h9p6h9----------------------------------------------------------------------|
|--5-5-8------------------------------------------------------------------------------|
|-------------------------------------------------------------------------------------|

                                                               Full                            
                                                               |--|                 
|--13-10-----13-10-13-10-----13-10-13-10-----13-10-----13-10--x-20b~-20\--|
|-------13-10-----------13-10-----------13-10-----13-10-----13------------|
|-------------------------------------------------------------------------|
|-------------------------------------------------------------------------|
|-------------------------------------------------------------------------|
|-------------------------------------------------------------------------|
Tap to rate this tab
# A B C D E F G H I J K L M N O P Q R S T U V W X Y Z