Black Label Society - I Never Dreamed tab

this is not the real tab.. i tabbed this by ear so i'm not sure

e|---------------------------------------------------|
b|---2-3-2----5---3---2-3-2-----0----2-3-2-----------|
g|---------2----------------4-2------------4---2---0-|
d|---------------------------------------------------|
a|------------0-------2--------------0-----2---------|
e|---3--------------------------3--------------------|
     G        A       Bm      G    A     Bm

e|---------------------------------------------------|
b|---2-3-2----5---3---2-3-2---0----------------------|
g|---------2----------------4------2-----4-----------|
d|---------------------------------------------------|
a|------------0-------2------------0-----2-----------|
e|---3------------------------3----------------------|
     G        A       Bm      G    A     B
Tap to rate this tab
 
# A B C D E F G H I J K L M N O P Q R S T U V W X Y Z