Black Label Society - Godspeed Hellbound tab

Black Label society
Godspeed hellbound

-------------------------------------|
-------------------------------------|
-------------------------------------|
-----12-11-----8-7-----4-3-----5-6---|
-----12-11-----8-7-----4-3-----5-6---|
-0-0-------0-0-----0-0-----0-0-------|   3 times

------------------------------------|
------------------------------------|
------------------------------------|
-----12-11-----8-7-----4-3----------|
-----12-11-----8-7-----4-3------5---|
-0-0-------0-0-----0-0-----0-0------|
                                P.H

-------------------------------------|
-------------------------------------|
-------------------------------------|
-----12-11-----8-7-----4-3-----5-6---|
-----12-11-----8-7-----4-3-----5-6---|
-0-0-------0-0-----0-0-----0-0-------|

------------------------------------|
------------------------------------|
------------------------------------|
-----12-11-----8-7-----4-3----------|
-----12-11-----8-7-----4-3------5---|
-0-0-------0-0-----0-0-----0-0------|
                                P.H

-------------------------------------|
-------------------------------------|
-------------------------------------|
-----12-11-----8-7-----4-3-----5-6---|
-----12-11-----8-7-----4-3-----5-6---|
-0-0-------0-0-----0-0-----0-0-------|

------------------------------------|
------------------------------------|
------------------------------------|
-----12-11-----8-7-----4-3----------|
-----12-11-----8-7-----4-3----------|
-0-0-------0-0-----0-0-----0-0------|

(pic slide at the end)

             -----------|
             -----------|
             -----------|
             -----------|
             -----------|
             -0-0000----| 14 times
           PM . ....


             ----------------|
             ----------------|
             ----------------|
             ----------------|
             ------------5-7-|
             -0-00--/12\-3-5-|
           PM . ..

             ---------------------------------------------------|
             ---------------------------------------------------|
             ---------------------------------------------------|
             ---------------------------------------------------|
             ---------------------------------------------5-7---|
             -0-0000-----0-0000-----0-0000-----0-0000-----3-5---|   4 times
           PM . ....     . ....     . ....     . ....


-------------------------------------|
-------------------------------------|
-------------------------------------|
-----12-11-----8-7-----4-3-----5-6---|
-----12-11-----8-7-----4-3-----5-6---|
-0-0-------0-0-----0-0-----0-0-------|

------------------------------------|
------------------------------------|
------------------------------------|
-----12-11-----8-7-----4-3----------|
-----12-11-----8-7-----4-3------5---|
-0-0-------0-0-----0-0-----0-0------|
                                P.H

-------------------------------------|
-------------------------------------|
-------------------------------------|
-----12-11-----8-7-----4-3-----5-6---|
-----12-11-----8-7-----4-3-----5-6---|
-0-0-------0-0-----0-0-----0-0-------|

------------------------------------|
------------------------------------|
------------------------------------|
-----12-11-----8-7-----4-3----------|
-----12-11-----8-7-----4-3----------|
-0-0-------0-0-----0-0-----0-0------|

(pic slide at the end)

             -----------|
             -----------|
             -----------|
             -----------|
             -----------|
             -0-0000----| 14 times
           PM . ....


             ----------------|
             ----------------|
             ----------------|
             ----------------|
             ------------5-7-|
             -0-00--/12\-3-5-|
           PM . ..

             ---------------------------------------------------|
             ---------------------------------------------------|
             ---------------------------------------------------|
             ---------------------------------------------------|
             ---------------------------------------------5-7---|
             -0-0000-----0-0000-----0-0000-----0-0000-----3-5---|   4 times
           PM . ....     . ....     . ....     . ....


-------------------------------------|
-------------------------------------|
-------------------------------------|
-----12-11-----8-7-----4-3-----5-6---|
-----12-11-----8-7-----4-3-----5-6---|
-0-0-------0-0-----0-0-----0-0-------|

------------------------------------|
------------------------------------|
------------------------------------|
-----12-11-----8-7-----4-3----------|
-----12-11-----8-7-----4-3------5---|
-0-0-------0-0-----0-0-----0-0------|
                                P.H
-------------------------------------|
-------------------------------------|
-------------------------------------|
-----12-11-----8-7-----4-3-----5-6---|
-----12-11-----8-7-----4-3-----5-6---|
-0-0-------0-0-----0-0-----0-0-------|

------------------------------------|
------------------------------------|
------------------------------------|
-----12-11-----8-7-----4-3----------|
-----12-11-----8-7-----4-3------5---|
-0-0-------0-0-----0-0-----0-0------|
                                P.H
-------------------------------------|
-------------------------------------|
-------------------------------------|
-----12-11-----8-7-----4-3-----5-6---|
-----12-11-----8-7-----4-3-----5-6---|
-0-0-------0-0-----0-0-----0-0-------|

------------------------------------|
------------------------------------|
------------------------------------|
-----12-11-----8-7-----4-3----------|
-----12-11-----8-7-----4-3------5---|
-0-0-------0-0-----0-0-----0-0------|
                                P.H
-------------------------------------|
-------------------------------------|
-------------------------------------|
-----12-11-----8-7-----4-3-----5-6---|
-----12-11-----8-7-----4-3-----5-6---|
-0-0-------0-0-----0-0-----0-0-------|

------------------------------------|
------------------------------------|
------------------------------------|
-----12-11-----8-7-----4-3----------|
-----12-11-----8-7-----4-3----------|
-0-0-------0-0-----0-0-----0-0------|

(pic slide at the end)


-------------------------------------|
-------------------------------------|
---------------------------3-1-------|
---4---5----4----3---4---1-------3---|
-2---2---2----2----1---1-------1-----|
-------------------------------------| 2 times

------------------------------------|
------------------------------------|
------------------------------------|
---4---4---4---4---3---3---3---3----|
-2---2---2---2---1---1---1---1------|
------------------------------------|

-------------------------------------|
-------------------------------------|
---------------------------3-1-------|
---4---5----4----3---4---1-------3---|
-2---2---2----2----1---1-------1-----|
-------------------------------------| 2 times

------------------------------------|
------------------------------------|
------------------------------------|
---4---4---4---4---3---3---3---3----|
-2---2---2---2---1---1---1---1------|
------------------------------------|

-------------------------------------|
-------------------------------------|
---------------------------3-1-------|
---4---5----4----3---4---1-------3---|
-2---2---2----2----1---1-------1-----|
-------------------------------------| 2 times

------------------------------------|
------------------------------------|
------------------------------------|
---4---4---4---4---3---3---3---3----|
-2---2---2---2---1---1---1---1------|
------------------------------------|


solo backing
-------------------------------------|
-------------------------------------|
-------------------------------------|
-----12-11-----8-7-----4-3-----5-6---|
-----12-11-----8-7-----4-3-----5-6---|
-0-0-------0-0-----0-0-----0-0-------|

------------------------------------|
------------------------------------|
------------------------------------|
-----12-11-----8-7-----4-3----------|
-----12-11-----8-7-----4-3------5---|
-0-0-------0-0-----0-0-----0-0------|
                                P.H
-------------------------------------|
-------------------------------------|
-------------------------------------|
-----12-11-----8-7-----4-3-----5-6---|
-----12-11-----8-7-----4-3-----5-6---|
-0-0-------0-0-----0-0-----0-0-------|

------------------------------------|
------------------------------------|
------------------------------------|
-----12-11-----8-7-----4-3----------|
-----12-11-----8-7-----4-3----------|
-0-0-------0-0-----0-0-----0-0------|

(pic slide at the end)

-------------------------------------|
-------------------------------------|
-------------------------------------|
-----12-11-----8-7-----4-3-----5-6---|
-----12-11-----8-7-----4-3-----5-6---|
-0-0-------0-0-----0-0-----0-0-------|

------------------------------------|
------------------------------------|
------------------------------------|
-----12-11-----8-7-----4-3----------|
-----12-11-----8-7-----4-3------5---|
-0-0-------0-0-----0-0-----0-0------|
                                P.H

times 6

-------------------------------------|
-------------------------------------|
-------------------------------------|
-----12-11-----8-7-----4-3-----5-6---|
-----12-11-----8-7-----4-3-----5-6---|
-0-0-------0-0-----0-0-----0-0-------|

------------------------------------|
------------------------------------|
------------------------------------|
-----12-11-----8-7-----4-3----------|
-----12-11-----8-7-----4-3----------|
-0-0-------0-0-----0-0-----0-0------|

(pic slide at the end)


             -----------|
             -----------|
             -----------|
             -----------|
             -----------|
             -0-0000----| 14 times
           PM . ....


             ---------------------|
             ---------------------|
             ---------------------|
             ---------------------|
             -----------------5-7-|
             -0-00--/12\-/12\-3-5-|
           PM . ..

             ---------------------------------------------------|
             ---------------------------------------------------|
             ---------------------------------------------------|
             ---------------------------------------------------|
             ---------------------------------------------5-7---|
             -0-0000-----0-0000-----0-0000-----0-0000-----3-5---|   4 times
           PM . ....     . ....     . ....     . ....

-------------------------------------|
-------------------------------------|
-------------------------------------|
-----12-11-----8-7-----4-3-----5-6---|
-----12-11-----8-7-----4-3-----5-6---|
-0-0-------0-0-----0-0-----0-0-------|

------------------------------------|
------------------------------------|
------------------------------------|
-----12-11-----8-7-----4-3----------|
-----12-11-----8-7-----4-3------5---|
-0-0-------0-0-----0-0-----0-0------|
                                P.H
-------------------------------------|
-------------------------------------|
-------------------------------------|
-----12-11-----8-7-----4-3-----5-6---|
-----12-11-----8-7-----4-3-----5-6---|
-0-0-------0-0-----0-0-----0-0-------|

------------------------------------|
------------------------------------|
------------------------------------|
-----12-11-----8-7-----4-3----------|
-----12-11-----8-7-----4-3------5---|
-0-0-------0-0-----0-0-----0-0------|
                                P.H
-------------------------------------|
-------------------------------------|
-------------------------------------|
-----12-11-----8-7-----4-3-----5-6---|
-----12-11-----8-7-----4-3-----5-6---|
-0-0-------0-0-----0-0-----0-0-------|

------------------------------------|
------------------------------------|
------------------------------------|
-----12-11-----8-7-----4-3----------|
-----12-11-----8-7-----4-3----------|
-0-0-------0-0-----0-0-----0-0------|
Tap to rate this tab
 
# A B C D E F G H I J K L M N O P Q R S T U V W X Y Z