Black Label Society - Riders Of The Damned tab

This Song Is Played In D standard tuneing.

[Slide]

[Main Riff]

|------------------------------|---------------------------------|
|------------------------------|---------------------------------|
|------------------------------|---------------------------------|
|------------------------------|---------------------------------|
|---------------7*-5---------5*|---------------5/7-5-----5/7-----|
|-0-6-5-3-5-3-0------7-5-3-0---|-0-6-5-3-5-3-0-------7-5-----7-5-|
                     o o o o
[Chorus]

|-----------------------------------------------|(x3)
|-----------------------------------------------|
|-99999--14\12-12121212-------------------------|
|-99999--14\12-12121212--12---8\7-7---8\7-77----|
|-77777--12\10-10101010--12---8\7-7---8\7-77----|
|------------------------10-0-6\5-5-0-6\5-55-3*-|

After 3rd time

|-----------------------------------------------------|
|-----------------------------------------------------|
|-----------------------------------------------------|
|-9--12--8\7-77---------------------------------------|
|-9--12--8\7-77---------------------------------------|
|-7--10--6\5-55-0-10-10-0-10-10-0-10-10-0-10-10-0-10/-|

[Main Riff](no change)

[Chorus]

After 3rd time

|------------------------------------------------------------|
|------------------------------------------------------------|
|------------------------------------------------------------|
|-9--12--8\7-77-------------------------------------------14-|
|-9--12--8\7-77-------------------------------------------14-|
|-7--10--6\5-55-0-10-10-0-10-10-0-10-10-0-10-10-0-10-10-0-12-|

Piano Section can be played on guitar as:

|---------------------------------|
|-12-13-10-12-8-10-7-8------7h8p7-|
|----------------------9~-9-------|
|---------------------------------|
|---------------------------------|
|---------------------------------|
(or you can skip and just break)

After Piano

|---------------|
|---------------|
|---------------|
|-9--8--7--5--5-|
|-9--8--7--5--5-|
|-7--6--5--3--3-|

Solo: (play main riff over)


Chorus]

|-----------------------------------------------|(x3)
|-----------------------------------------------|
|-99999--14\12-12121212-------------------------|
|-99999--14\12-12121212--12---8\7-7---8\7-77----|
|-77777--12\10-10101010--12---8\7-7---8\7-77----|
|------------------------10-0-6\5-5-0-6\5-55-3*-|

After 3rd time
                 (x3)
|---------------| |--------------------------------------------------|
|---------------| |--------------------------------------------------|
|---------------| |--------------------------------------------------|
|-9--12--8\7-77-| |-----------------------------------------------14-|
|-9--12--8\7-77-| |-----------------------------------------------14-|
|-7--10--6\5-55-| |0-10-10-0-10-10-0-10-10-0-10-10-0-10(extended)-12-|

-rake strings with echo on-

End
Tap to rate this tab
 
# A B C D E F G H I J K L M N O P Q R S T U V W X Y Z