Song name
# A B C D E F G H I J K L M N O P Q R S T U V W X Y Z

Black Label Society - Spoke In The Wheel tab

-----------------------------------------------------------------------------
                                  Black Label Society
			     Spoke in The Wheel Intro Solo
-----------------------------------------------------------------------------
Tabbed by: Brad Gogan
Email:

Tuning: Standard

I learned it all by ear and I'm pretty sure it's 99% accurate, maybe not the same
way Zakk plays it, but it's the same notes. I'll add the rest in later when I have
more time. Hope you enjoy. Comment if I missed a part or any questions.

Guitar 1

e|-----12----10----7---10---------------------------------10-----------------|
B|--/10----/8----/5------10b11--8---8---/8--10--8---10/12----12~~12--10b11---|
G|--------------------------------9------------------------------------------|
D|---------------------------------------------------------------------------|
A|---------------------------------------------------------------------------|
E|---------------------------------------------------------------------------|

e|--------------------------------------------------------------10-----------|
B|-----12----10---8----------------8---8--10---10b11---8--10/12----12--------|
G|--/12---/11---/9---7-7h9-9~~~7h9---9---------------------------------------|
D|---------------------------------------------------------------------------|
A|---------------------------------------------------------------------------|
E|---------------------------------------------------------------------------|

Guitar 2: Backing

e|---------------|------------------------------3----0---------|
B|----1-------1--|-------3-------------0h1-------1-------1-----|
G|-----0-----0-0-|----0----0----------2----2-2----2--------0---|
D|-------0h2-----|-----0---------0---2------2----------------0-|
A|--3------------|--2--------0h2--0--------------------2-------|
E|---------------|---------------------------------------------|

e|---------------|-------3-------------------------0--------------|
B|----1-------1--|-------3------------------3-------3--3----------|
G|-----0-----0-0-|----0----0--------------0---0------0--0---0-----|
D|-------0h2-----|-----0----------------2-------2-----------------|
A|--3------------|--2-----------------2-------------------5---5/3-| Repeat
E|---------------|------------2b3--0------------------------------| All
                                                 ^
There is a variation  right here----------------e|3------------|
                                                B|3------------|
                                                G|0------------|
                                                D|2------2-----|
                                                A|2-----2-2--3-|
                                                E|-------------|

Just listen to the song to find out when you play the variation.
Tap to rate this tab
 
# A B C D E F G H I J K L M N O P Q R S T U V W X Y Z