Song name
# A B C D E F G H I J K L M N O P Q R S T U V W X Y Z

Black Label Society - 13 Years Of Grief tab

Verse Riff
E----------------------------------------------------------------------|
B----------------------------------------------------------------------|
G----------------------------------------------------------------------|
D----------------------------------------------------------------------|
A----------------------------------------------------------------------|
B-0h1--0--0--0h3--0h1-0--0--3-0-3-5-6-0-3------------------------------|

Solo 4x
E----------------------------------------------------------------------|
B-9h10p9--9------------------------------------------------------------|
G-------12--12-11-9----11---9bend1/4-----------------------------------|
D-------------------11----11---11-9--11-10-9---------------------------|
A----------------------------------------------------------------------|
B----------------------------------------------------------------------|

                                          P.M.---------------------------------
E------------------------------------------------------------------------------------|
B--9h12p9----9-----------------------------9h12p9---9--------------------------------|
G---------12---12-11-9--11--9bend1/4--------------12--12-11-9------------------------|
D---------------------11--11--11-9----------------------------11-11-9-----11-9-------|
A----------------------------------11-10-9----------------------------11-9----11-9---|
B------------------------------------------------------------------------------------|
Tap to rate this tab
# A B C D E F G H I J K L M N O P Q R S T U V W X Y Z