Black Label Society - Godspeed Hellbound tab

this much i have figured out by ear cause i couldnt find it on 
any other website, but here's what iv got so far,
i hope you enjoy it.
(if you have any corrections email me at trogdor200@yahoo.com)


|-----------------------------------------------|(re-peat 3x)
|-----------------------------------------------|
|-----------------------------------------------|
|-----8\7-----7\5-------------7/9---------------|
|-----6\5-----5\3-----5/7-----5/7---------------|
|-000-----000-----000-3/5-000-------------------|

|-----------------------------------|
|-----------------------------------|
|-----------------------------------|
|-----8\7-----7\5-------------------|
|-----6\5-----5\3-----5/7-----------|
|-000-----000-----000-3/5-000-3*----|



alternate between the next two sets of notes 2 or 3 times
|-----------------------------------------------|
|-----------------------------------------------| 
|-----------------------------------------------|  
|-----8\7-----7\5-------------7/9---------------|   
|-----6\5-----5\3-----5/7-----5/7---------------|    
|-000-----000-----000-3/5-000-------------------|

|-----------------------------------|
|-----------------------------------|
|-----------------------------------|   
|-----8\7-----7\5-------------------|  
|-----6\5-----5\3-----5/7-----------| 
|-000-----000-----000-3/5-000-3*----|

|---------------------------------------------------|
|---------------------------------------------------|
|---------------------------------------------------|
|---------------------------------------------------|
|(keep this going for a min)------------------------|
|-000-00-000-00-000-00------------------------------|

|---------(alternate between the two)---------------|
|---------------------------------------------------|
|---------------------------------------------------|
|---------------------------------------------------|
|----------------------5-7----------------------7-5-|
|-000-00-000-00-000-00-3-5-000-00-000-00-000-00-5-3-|

then go back to the beginning and play it again,


* = pintch harmonic
/ = slide up
\ = slide down 

Tap to rate this tab
 
# A B C D E F G H I J K L M N O P Q R S T U V W X Y Z