Black Label Society - Godspeed Hellbound tab

Hi there it seems like some tabs I've seen here weren't correctly made, so I decided to 
make my own tab of BLS - Godspeed Hellbound.

NOTE: THIS IS ONLY THE GLOBAL RYTHEM TAB!!! ANY OTHER ADD-INS MADE AT LIVE 
CONCERT/FESTIVALS DOES NOT ENCOUNTER IN THIS TAB.

Tunning: Drop D (DADGBE)
x= mute
/= slide to fret value
>= Plectrum Slide
*= Harmonic pinch with value (*3 means harmonic pinch on the 3rd fret)


Intro 1:
D|--xxx-6/5-xxx-5/3-xxx-3/5-xxx------|3x
A|--xxx-6/5-xxx-5/3-xxx-3/5-xxx-3/5--|
D|------6/5-----5/3-----3/5-----5/7--|
G|------------------------------5/7--|
B|-----------------------------------|
E|-----------------------------------|


Intro 2:
D|--xxx-6/5-xxx-5/3-xxx-3/5-xxx-*3--|
A|--xxx-6/5-xxx-5/3-xxx-3/5-xxx-----|
D|------6/5-----5/3-----3/5---------|
G|----------------------------------|
B|----------------------------------|
E|----------------------------------|


Intro part 3:
D|--xxx-6/5-xxx-5/3-xxx-3/5-xxx------|
A|--xxx-6/5-xxx-5/3-xxx-3/5-xxx-3/5--|
D|------6/5-----5/3-----3/5-----5/7--|
G|------------------------------5/7--|
B|-----------------------------------|
E|-----------------------------------|

D|--xxx-6/5-xxx-5/3-xxx-3/5-xxx-*3--|
A|--xxx-6/5-xxx-5/3-xxx-3/5-xxx-----|
D|------6/5-----5/3-----3/5---------|
G|----------------------------------|
B|----------------------------------|
E|----------------------------------|

D|--xxx-6/5-xxx-5/3-xxx-3/5-xxx------|
A|--xxx-6/5-xxx-5/3-xxx-3/5-xxx-3/5--|
D|------6/5-----5/3-----3/5-----5/7--|
G|------------------------------5/7--|
B|-----------------------------------|
E|-----------------------------------|

D|--xxx-6/5-xxx-5/3-xxx-3/5-xxx-*3--|
A|--xxx-6/5-xxx-5/3-xxx-3/5-xxx-----|While the last riff
D|------6/5-----5/3-----3/5---------|The 2nd Guitar does
G|----------------------------------|An plectrum slide with
B|----------------------------------|Hammer-on + Pull-offs
E|----------------------------------|through it while sliding


Interlude:
D|--xxxx-xx--| What i do here is very easy
A|--xxxx-xx--| first 4 mutes are up and down picking
D|-----------|  x down x up x down x up
G|-----------| last 2 mutes
B|-----------|  x down x down
E|-----------|

eventually it ends with and it is going directly into the Verse.
D|--3/5--|
A|--3/5--|
D|--3/5--|
G|-------|
B|-------|
E|-------|

although if you listen to the rythem of muting you'll be able to figure it out your 
selves too if you don't agree with my strumming pattern.


Verse: play the 2 riffs 2 times
D|--xxxx-xx--xxxx-xx--xxxx-xx--3/5--|
A|--xxxx-xx--xxxx-xx--xxxx-xx--3/5--|
D|-----------------------------3/5--|
G|----------------------------------|
B|----------------------------------|
E|----------------------------------|

D|--xxxx-xx--xxxx-xx--xxxx-xx--5/3--|
A|--xxxx-xx--xxxx-xx--xxxx-xx--5/3--|
D|-----------------------------5/3--|
G|----------------------------------|
B|----------------------------------|
E|----------------------------------|


Chorus: same part as Intro Part 3
D|--xxx-6/5-xxx-5/3-xxx-3/5-xxx------|
A|--xxx-6/5-xxx-5/3-xxx-3/5-xxx-3/5--|
D|------6/5-----5/3-----3/5-----5/7--|
G|------------------------------5/7--|
B|-----------------------------------|
E|-----------------------------------|

D|--xxx-6/5-xxx-5/3-xxx-3/5-xxx-*3--|
A|--xxx-6/5-xxx-5/3-xxx-3/5-xxx-----|
D|------6/5-----5/3-----3/5---------|
G|----------------------------------|
B|----------------------------------|
E|----------------------------------|

D|--xxx-6/5-xxx-5/3-xxx-3/5-xxx------|
A|--xxx-6/5-xxx-5/3-xxx-3/5-xxx-3/5--|
D|------6/5-----5/3-----3/5-----5/7--|
G|------------------------------5/7--|
B|-----------------------------------|
E|-----------------------------------|

D|--xxx-6/5-xxx-5/3-xxx-3/5-xxx-*3--|
A|--xxx-6/5-xxx-5/3-xxx-3/5-xxx-----|
D|------6/5-----5/3-----3/5---------|
G|----------------------------------| 2nd guitar plectrum slide again
B|----------------------------------|
E|----------------------------------|


Well If Your Not Convinced With My Tab Then Watch Tomorrow My Guitar Cover For This Tab 
On youtube.com

I will try to upload the video in the afternoon hope it will be on-line at
16:00 GMT+1 Netherlands time.

When uploaded i will of course post the link here at UG.com
Hope you enjoy it ;D
Tap to rate this tab
 
# A B C D E F G H I J K L M N O P Q R S T U V W X Y Z