Song name
# A B C D E F G H I J K L M N O P Q R S T U V W X Y Z

Black Label Society - Stronger Than Death tab

Tabbed by Kevin Konopi
Tuning:BADGBe

/-slide up 
\-slide down
^-bend
(3)-let ring
X-mute note
~-vibrate w/ finger
ph-pinch harmonic

e|-------------------X----------X-----------|
B|---------------------X----------X---------|
G|-8-----8/9\8-7-(7)-----X----------X-------|
D|-X-----X-----X-----------X----------X-----|
A|-6-----6/7\7-5-(5)---------0-0--------0-0-|
B|-0-0-0---------------------0-0--------0-0-|

                        ph    ph~~~~
e|----------------------------------|
B|----------------------------------|
G|-7/8-----8/9\8-7------------------|
D|-X-------X-----X------------------|
A|-5/6-----6/7\6-5------------------|
B|-0---0-0-------0-5/19\-3^-(3)-3-0-|

thats it.
Tap to rate this tab
 
# A B C D E F G H I J K L M N O P Q R S T U V W X Y Z