Song name
# A B C D E F G H I J K L M N O P Q R S T U V W X Y Z

Black Label Society - Lords Of Destruction tab

Artist: Black Label Society
Song: Lords of Destruction
Album: 1919 Eternal
By: Skull Dragon

From: www.BlackLabelSociety.net



Tuning: A a d g b e

2 Guitars


Guitar 1

e----------------------------------------
b----------------------------------------
g----------------------------------------
d----------------------------------------
a-0---5--3---0---------------------------
A-0---5--3---0---------------------------
repeat




Guitar 2
 1 step
e------|----------------|------------------
b--4---|-----4----------|--11--------------
g--6^--|-----6----------|--14^-------------
d------|-bend-down-to-6-|------------------
a------|----------------|------------------
A------|----------------|------------------
 1st     2nd time         3rd time      


e------------------------------------------------
b------------------------------------------------
g------------------------------------------------
d------------------------------------------------
a------------------------------------------------
A-0-0-0-0-0-0-0-0--0--0--0--0--0--0--0--0--3--6--
 (8)              (8)



e------------------------------------------------
b------------------------------------------------
g------------------------------------------------
d------------------------------------------------
a------------------------------------------------
A-0-0-0-0-0-0-0-0--0--0--0--0--0--0--0--0--6--1--
 (8)              (8)
Tap to rate this tab
# A B C D E F G H I J K L M N O P Q R S T U V W X Y Z