Guitaretab - guitar tabs
Song name
# A B C D E F G H I J K L M N O P Q R S T U V W X Y Z

Black Label Society - Graveyard Disciples tab

Artist: Black Label Society
Song: Graveyard Disciples
Album: 1919 Eternal

Tabbed by: Scott Rae

Main Riff/Intro/Verse
D-----------------------------------------
A-----------------------------------------
F-----------------------------------------
C-2-2-2-2-2-2-2-2-3-2-2-2-2-2-2-2---------		x8
G-2-2-2-2-2-2-2-2-3-2-2-2-2-2-2-2---------
C-0-0-0-0-0-0-0-0-1-0-0-0-0-0-0-0--3/5\3--

Chorus (Rhythm)
D------------------------------------------
A------------------------------------------
F------------------------------------------
C-7---8---7---5----7---8---7---5-----------		x1
G-7---8---7---5----7---8---7---5----3------
C-5---6---5---3----5---6---5---3-----------


Chorus (Lead)
D------------------------------------
A------------------------------------
F---------12----------------8--------
C-----12-----12----------8----8------		x3
G--10-----------10-----6--------6---
C------------------------------------

D------------------------------------
A------------------------------------
F---------12----------------10-------
C-----12-----12----------10----10----		x1
G--10-----------10-----8----------8--
C------------------------------------



Verse 2.1
D-----------------------------------------
A-----------------------------------------
F-----------------------------------------
C-2-2-2-2-2-2-2-2-3-2-2-2-2-2-2-2---------		x1
G-2-2-2-2-2-2-2-2-3-2-2-2-2-2-2-2---------
C-0-0-0-0-0-0-0-0-1-0-0-0-0-0-0-0--3/5\3
[ Tab from: http://www.guitaretab.com/b/black-label-society/30753.html ]
Verse 2.2
D-----------------------------------------
A-----------------------------------------
F-----------------------------------------
C-2-2-2-2-2-2-2-2-3-2-2-2-2-2-2-2---------		x1
G-2-2-2-2-2-2-2-2-3-2-2-2-2-2-2-2---------
C-0-0-0-0-0-0-0-0-1-0-0-0-0-0-0-0---------

Repeat 'Verse 2.1' Riff x4
Chorus Riff (As before)


Pre-solo and solo riffs (I haven't tabbed the solo though)
D----------------------------------------------
A----------------------------------------------
F----------------------------------------------
C----------------------------------------------	x4
G---5P3-5---5P3-5---3-5/6---5P3-5---5P3-5--3-6
C----------------------------------------------

D----------------------------------------------
A----------------------------------------------
F----------------------------------------------
C----------------------------------------------	x2
G---7P5-7---7P5-7---5-7/8---7P5-7---7P5-7--5-8-
C----------------------------------------------

D------------------------------------------------
A------------------------------------------------
F------------------------------------------------
C------------------------------------------------	x2
G---9P7-9---9P7-9---7-9/10---9P7-9---9P7-9--7-10-
C------------------------------------------------

Chorus Riffs x1

Then finally

D-----------------------------------------
A-----------------------------------------
F-----------------------------------------
C-2-2-2-2-2-2-2-2-3-2-2-2-2-2-2-2---------		x3
G-2-2-2-2-2-2-2-2-3-2-2-2-2-2-2-2---------
C-0-0-0-0-0-0-0-0-1-0-0-0-0-0-0-0--3/5\3

D-----------------------------------------
A-----------------------------------------
F-----------------------------------------
C-2-2-2-2-2-2-2-2-3-2-2-2-2-2-2-2---------		x1
G-2-2-2-2-2-2-2-2-3-2-2-2-2-2-2-2---------
C-0-0-0-0-0-0-0-0-1-0-0-0-0-0-0-0---------

Sounds pretty damn good to me!
Related for Graveyard Disciples tab