Song name
# A B C D E F G H I J K L M N O P Q R S T U V W X Y Z

Black Label Society - Refuse To Bow Down tab

Artist: Black Label Society
Album: 1919 Eternal
Song: Refuse to Bow Down

From: www.BlackLabelSociety.net


Tabbed by: Chris Fayers, Xes (xes@megadeth.com), and Skull Dragon


tuning- Bb Ab Db Gb Bb Eb 
*=pinch harmonic


 Riff A
Eb------------------------------------------------------------------
Bb------------------------------------------------------------------
Gb------------------------------------------------------------------
Db------------------------------------------------------------------
Ab--------------------------------------------------------------*---
Bb---0h3-0h3-0h3-0h3-0-6-5-3--5h6-5-3--0h3-0h3-0h3-0h3-0-6-5-3--3~--




 Riff B
Eb-------------------------------------------
Bb-------------------------------------------
Gb-------------------------------------------
Db--9--7--5---------------------------------
Ab--7--5--3----------0-0-0--0-0-0--0-0-0-0---
Bb-------------------0-0-0--0-0-0--0-0-0-0---
                     pm...................


 Riff C
Eb-------------------------------------------------------
Bb-------------------------------------------------------
Gb-------------------------------------------------------
Db--------------------------3-------------------------3--
Ab--------------------------3-------------------------3--
Bb--0000000000--0000000000--1--000000000--0000000000--1--
    pm....................     .....................

Eb-------------------------------------------------------
Bb-------------------------------------------------------
Gb-------------------------------------------------------
Db--------------------------3-------------------------3--
Ab--------------------------3-------------------------3--
Bb---0-0-0-0-0--0-0-0-0-0-0-1--0-0-0-0-0--0-0-0-0-0-0-1--
     pm....................    ......................



Alt. Intro and verse riff, played after first chorus thru rest of song~~~
|-----------------|-----------------|-----------------|------------------|
|-----------------|-----------------|-----------------|------------------|
|-----------------|-----------------|-----------------|------------------|
|-----------------|-----------------|-----------------|------------------|
|-----------------|-----------------|-----------------|------------------|
|-0-3-0-3-0---0-3-|-0-6-5-3-5-6-5-3-|-0-3-0-3-0---0-3-|-0-6-5-3-5-6-[3]~~|
          ^                                   ^                     P.H.
(longer value than before on ^ notes)
Tap to rate this tab
# A B C D E F G H I J K L M N O P Q R S T U V W X Y Z