Song name
# A B C D E F G H I J K L M N O P Q R S T U V W X Y Z

Black Label Society - Mass Murder Machine tab

Mass Murder Machine
BLACK LABEL SOCIETY
ZWyldebabe5675
tuning = Standard EADGBe
^= Bend

intro/ verse-

-------------------------------------------------
-------------------------------------------------
-------------------------------------------------
-----2---------2------4^------2-----2------------
-2-4---2-4-2-4---2-4--2--2-4---2-4---------------
--------------------------------------2^--3-2-0-2

Bridge

---------------------------------
------6----4---------------------
----6----4---2-------4-----------
--4----2-----0--6-6--2-----------
----------------4-4--------------

Before Solo
--------------------------
--------------------------
--------------------------
-6------------------------
-4------7---afew times-7-7
--------5--------------5-5

Sorry i dont have the solo
this is my first tab but i am 
working on the solo so
hopefully i will have it 4 u
soon! 
im me @ KoRnLmpBzktGrl if u have
any questions and i can hopefully
answer them 4 u! anyway good luck
with this tab!!!
Tap to rate this tab
# A B C D E F G H I J K L M N O P Q R S T U V W X Y Z