Song name
# A B C D E F G H I J K L M N O P Q R S T U V W X Y Z

Black Label Society - 13 Years Of Grief tab

Artist Name : Black Label Society
Song Name   : 13 Years of Grief
Added By Mikhailo
 
E|-----------------------------------------------------------
B|-----------------------------------------------------------
G|-----------------------------------------------------------
D|-----------------------------------------------------------
A|-----------------------------------------------------------
B|-0-1-0---0----0----0-3-0-1---0---0---3-0-3-5-6-0--6--------


Lead:

E|-----------------------------------------------------------
B|-9--12-9-----9---------------------------------------------
G|---------12-----12-11-9----11----9----9--------------------
D|------------------------11----11---11---11--10--9----------
A|-----------------------------------------------------------
B|-----------------------------------------------------------

E|-------------------------------------------------------------
B|-9--12-9-----9-----------------------------------------------
G|---------12-----12-11-9--------------------------------------
D|------------------------11--11-9------11-9-------11-9--------
A|---------------------------------11-9------11-9--------11-11-
B|-------------------------------------------------------------

E|-----^----------------------------------------------------- |r
B|----11--11-14-11---------11-14-11--------11-14-11----------:|e
G|-13-13------------13-13-----------13-13------------13--13-- |p
D|----------------------------------------------------------- |e
A|-----------------------------------------------------------:|a
B|----------------------------------------------------------- |t


E|------------------------------------11---------------------
B|--11--14--11------14-14---14---14--------------------------
G|--------------13-------------------------------------------
D|-----------------------------------------------------------
A|-----------------------------------------------------------
B|-----------------------------------------------------------

E|-13-14-11-13----11-------11-13-11--------------------------
B|-------------14----13-14----------13-14-11-13----11--------
G|----------------------------------------------14----13-14--
D|-----------------------------------------------------------
A|-----------------------------------------------------------
B|-----------------------------------------------------------

E|-----------------------------------------------------------
B|--11-13-11-------------------------------------------------
G|-----------13-14-11-11-11----------------------------------
D|--------------------------13--------------11-12-13-13------
A|------------------------------11-12-13-13------------------
B|-----------------------------------------------------------

E|-----------------------------------------------------------
B|-------------------11--13--14--14-14-----------------------
G|--11--13--14--14-------------------------------------------
D|-----------------------------------------------------------
A|-----------------------------------------------------------
B|-----------------------------------------------------------
Tap to rate this tab
 
# A B C D E F G H I J K L M N O P Q R S T U V W X Y Z