Song name
# A B C D E F G H I J K L M N O P Q R S T U V W X Y Z

Black Label Society - Rose Petalled Garden tab

This is only the RHYTHM guitar.

KEY
b - bend
~ - pinch harmonic (squeal)
h - hammer on
p - pull-off
. - palm mute
/ - slide up
\ - slide down
X\- pick scrape

Intro Backing: x4

Let Ring throughout the whole intro
|----------------------------------------------------------------------|
|----------------------------------------------------------------------|
|----------------------------------------------------------------------|
|----0-------0-----3-------3--------3----------3-----------------------|
|--0--0----0--0---0-0-----5--5-----5--5----0-5-------------------------|
|-0------6-------0------0--------0--------0----------------------------|

MAIN RIFF:
 Pinches(~):      ~     ~ ~   ~                       ~       ~
|----------------------------------------------------------------------|
|----------------------------------------------------------------------|
|----------------------------------------------------------------------|
|--5/7-----7---7--5h6p5-3-5-5-3--5/7-----7---7-------------------------|
|--3/5-----5---5-----------------3/5-----5---5-------------------------|
|------0-0---0------------------------0-0---0-----5-6-3---5-6-3--------|
       . .   .                        . .   .

 Pinches(~):      ~     ~ ~   ~
|----------------------------------------------------------------------|
|----------------------------------------------------------------------|
|----------------------------------------------------------------------|
|--5/7-----7---7--5h6p5-3-5-5-3----------------------------------------|
|--3/5-----5---5-----------------7-6-5-3-0-0-0-0-----------------------|
|------0-0---0-------------------7-6-5-3-0-0-0-0-----------------------|
       . .   .                           . . . .


(Pre verse is the same but has pinches on the 3rd fret)
VERSE:
|----------------------------------------------------------------------|
|----------------------------------------------------------------------|
|----------------------------------------------------------------------|
|----------------------------------------------------------------------|
|--0-0-0-0-0--0-0--0----0-0----0-0-0-0-0--0-0-------------X\-----------|
|--0-0-0-0-0--0-0--0-3b-0-0-3b-0-0-0-0-0--0-0----x6-------X\-----------|

CHORUS:
 Pinches(~):      ~     ~ ~   ~                       ~       ~
|----------------------------------------------------------------------|
|----------------------------------------------------------------------|
|----------------------------------------------------------------------|
|--5/7-----7---7--5h6p5-3-5-5-3--5/7-----7---7-------------------------|
|--3/5-----5---5-----------------3/5-----5---5-------------------------|
|------0-0---0------------------------0-0---0-----5-6-3---5-6-3--------|
       . .   .                        . .   .

 Pinches(~):      ~     ~ ~   ~
|----------------------------------------------------------------------|
|----------------------------------------------------------------------|
|----------------------------------------------------------------------|
|--5/7-----7---7--5h6p5-3-5-5-3----------------------------------------|
|--3/5-----5---5-----------------7-6-5-3-0-0-0-0-----------------------|
|------0-0---0-------------------7-6-5-3-0-0-0-0-----------------------|
       . .   .                           . . . .
|----------------------------------------------------------------------|
|----------------------------------------------------------------------|
|----------------------------------------------------------------------|
|----------------------------------------------------------------------|
|-7-6-5-3-0-0-0-0----7-6-5-3-0-0-0-0----7-6-5-3-0-0-0-0----------------|
|-7-6-5-3-0-0-0-0----7-6-5-3-0-0-0-0----7-6-5-3-0-0-0-0----------------|
          . . . .            . . . .               . . . .

VERSE 2:
|----------------------------------------------------------------------|
|----------------------------------------------------------------------|
|----------------------------------------------------------------------|
|----------------------------------------------------------------------|
|--0-0-0-0-0--0-0--0----0-0----0-0-0-0-0--0-0-------------X\-----------|
|--0-0-0-0-0--0-0--0-3b-0-0-3b-0-0-0-0-0--0-0----x6-------X\-----------|
   . . . . .  . .  .    . .    . . . . .  . .

CHORUS:
 Pinches(~):      ~     ~ ~   ~                       ~       ~
|----------------------------------------------------------------------|
|----------------------------------------------------------------------|
|----------------------------------------------------------------------|
|--5/7-----7---7--5h6p5-3-5-5-3--5/7-----7---7-------------------------|
|--3/5-----5---5-----------------3/5-----5---5-------------------------|
|------0-0---0------------------------0-0---0-----5-6-3---5-6-3--------|
       . .   .                        . .   .

 Pinches(~):      ~     ~ ~   ~
|----------------------------------------------------------------------|
|----------------------------------------------------------------------|
|----------------------------------------------------------------------|
|--5/7-----7---7--5h6p5-3-5-5-3----------------------------------------|
|--3/5-----5---5-----------------7-6-5-3-0-0-0-0-----------------------|
|------0-0---0-------------------7-6-5-3-0-0-0-0------------------x2---|
                                         . . . .
|----------------------------------------------------------------------|
|----------------------------------------------------------------------|
|----------------------------------------------------------------------|
|----------------------------------------------------------------------|
|-7-6-5-3-0-0-0-0----7-6-5-3-0-0-0-0----7-6-5-3-0-0-0-0------7---------|
|-7-6-5-3-0-0-0-0----7-6-5-3-0-0-0-0----7-6-5-3-0-0-0-0------7---------|
          . . . .            . . . .            . . . .

BRIDGE:
|----------------------------------------------------------------------|
|----------------------------------------------------------------------|
|----------4-5---------4-5-----4---------------------------------------|
|------3-----------3---------3---3-------------------------------------|
|--3/5---5-----3/5---5-----5-------------------------------------------|
|----------------------------------------------------------------------|

SOLO:
|----------------------------------------------------------------------|
|----------------------------------------------------------------------|
|----------------------------------------------------------------------|
|----------------------------------------------------------------------|
|-02-2-2-02-3-0-3--02-2-0-3--------xx-xx-xx-xx-------------------------|
|-02-2-2-02-3-0-3--02-2-0-3--------xx-xx-xx-xx-------------------------|

OUTRO:
 Pinches(~):      ~     ~ ~   ~                       ~       ~
|----------------------------------------------------------------------|
|----------------------------------------------------------------------|
|----------------------------------------------------------------------|
|--5/7-----7---7--5h6p5-3-5-5-3--5/7-----7---7-------------------------|
|--3/5-----5---5-----------------3/5-----5---5-------------------------|
|------0-0---0------------------------0-0---0-----5-6-3---5-6-3--------|
       . .   .                        . .   .

 Pinches(~):      ~     ~ ~   ~
|----------------------------------------------------------------------|
|----------------------------------------------------------------------|
|----------------------------------------------------------------------|
|--5/7-----7---7--5h6p5-3-5-5-3----------------------------------------|
|--3/5-----5---5-----------------7-6-5-3-0-0-0-0-----------------------|
|------0-0---0-------------------7-6-5-3-0-0-0-0-----------------------|

                                                              fade out
|----------------------------------------------------------------------|
|----------------------------------------------------------------------|
|----------------------------------------------------------------------|
|----------------------------------------------------------------------|
|-------------------------------------------------------------0--------|
|-7-6-5-3-0-0-0-0----7-6-5-3-0-0-0-0----7-6-5-3-0-0-0-0-------0--------|
Tap to rate this tab
 
# A B C D E F G H I J K L M N O P Q R S T U V W X Y Z