Guitaretab - guitar tabs
Song name
# A B C D E F G H I J K L M N O P Q R S T U V W X Y Z

Black Label Society - Stoned And Drunk tab

[----------------------------------------------------] [--------]
[----------------------------------------------------] [--------]
[----------------------------------------------------] [--------] 2nd Gtr.
[-5h7--7--7--7--7--7--7---7/10----10---10p9---9----9\] [-5-5/7--]
[-0---0--0--0--0--0--0--0-0----0-0--0-0----0-0--0-0--] [-5-5/7--]
[----------------------------------------------------] [-3-3/5--]
                          x4


[------------------------------------]
[------------------------------------]
[------------------------------------] x3   Verse Riff
[-4-4-4-4-4--4-4--4-4----------------]
[-0-2-2-0-2--0-2--0-2--2-0----2-0----]
[--------------------------2-0----3-0]
                       _______pm_____

[-------------------------------]
[-------------------------------]
[-------------------------------]   Then back to intro x3
[-4/5---4---4/5---4---4/5---4---]
[-2/3---2---2/3---2---2/3---2---]
[-------------------------------]


[------------------------------------]
[------------------------------------]
[------------------------------------] x3
[-4-4-4-4-4--4-4--4-4----------------]
[-0-2-2-0-2--0-2--0-2--2-0----2-0----]
[--------------------------2-0----3-0]
                       _______pm_____


[-------------------------------]
[-------------------------------]
[-------------------------------]  Then back to intro again x3
[-4/5---4---4/5---4---4/5---4---]
[-2/3---2---2/3---2---2/3---2---]
[-------------------------------]


[-------------------------------]         [--------------------]
[-------------------------------]         [--------------------]
[-7----5---2--------------------] x2 then [-7----5---2---------] Pre Chorus
[-7----5---2--------------------]         [-7----5---2---------]
[-5----3---0---0-0-0-0-0-0-0-0-0]         [-5----3---0---------]
[-------------------------------]         [-------------5/17\--]


[---------------------------------------------------------------------------]
[---------------------------------------------------------------------------]
[---------------------------------------------------------------------------]
[-2------2------2------2------2------2--------------------------2------2----]
[-2------2------2------2------2------2--------5/7--5b-----------2------2----]
[-0--3b--0--3b--0--3b--0--3b--0--3b--0--3b--0---------6-5-3-3---0--3b--0--3b]
                                                      _pm__ ph
                               _________________nh______________________
[-------------------------------------------------------------------------]
[-------------------------------------------------------------------------]
[------------------------------4p2p0-4p2p0-4p2p0-4p2p0-4p2p0-4p2p0-4------]p2p0]
[--2------2------2------2---0---------------------------------------------]
[--2------2------2------2-------------------------------------------------]
[--0--3b--0--3b--0--3b--0-------------------------------------------------]
*lightly slide rite hand down to produce      random harmonics


Those are all the riffs. Just repeat them in order again.


Solo(kickass)
                                 ____*w/ pick & fingers__
[---------------------------------------------------------------------------]
[----10----10----10----10---------12---10---11---10---9---------------------]
[-9b----9b----9b----9b----9b------------------------------9/10\9-7--9--7----]
[----------------------------7/9-----9----11---10---9---9----------9--9--9--]
[---------------------------------------------------------------------------]
[---------------------------------------------------------------------------]
[ Tab from: http://www.guitaretab.com/b/black-label-society/34882.html ]
[----------------------------------------------------------------------]
[----------------------------------------------------------------------]
[-------------------------------------------------------------7--9--7p0]
[-7--9--7--------------------------7--9--7h9----7--9--7h9-7h9--9---9---]
[---9--9--9\7-5-7-----5--7---5h7/9--9--9-----7h9--9--9-----------------]
[------------------5h7--7--7-------------------------------------------]
                ph
                                 _____x7_____
[---------------------------------17----------17--17-17--17h20h22p20p17]
[-10br--10br--10br--10br--10b~~~----20p17-20b---20---------------------]
[----------------------------------------------------------------------]
[----------------------------------------------------------------------]
[----------------------------------------------------------------------]
[----------------------------------------------------------------------]
                                                                hold bend
[p20p17--17--17-------17---------------------------------------------------]
[------20--20--20b------20p17--17-20p17-19p17--17-17-------------19b-19-19r]
[----------------------------19--------------19-----19brp17-19b~~----------]
[--------------------------------------------------------------------------]
[--------------------------------------------------------------------------]
[--------------------------------------------------------------------------]

[----------------17h22p20p17--17h22p20p17---------17--------------------]
[-19b~~~-11/20-20-----------20-----------20-17--17--20-17---------------]
[---------------------------------------------20---------20-17--17-20-17]
[-------------------------------------------------------------19--------]
[-----------------------------------------------------------------------]
[-----------------------------------------------------------------------]

[------------------------7h10p7--10--7h9p7-----7------------------------]
[------------x\--10brb---------10--10-----10/12-10p7--10--7-9--7--------]
[-----21b~~~-x\-------------------------------------10--10---10--10-9-7-]
[19-17-----------------------------------------------------------------9]
[-----------------------------------------------------------------------]
[-----------------------------------------------------------------------]

[----------7-7----------------------------------------------------------]
[------7---7-7-10p7--7-7-7-----------------------7----------7--------9br]
[-9--7b--9---------9-------9brp7-9~~~\--7--------7----------7--------9br]
[--9--------------------------------------9-7-------9-7-------9-7-------]
[---------------------------------------------9-9-------9-9------9-9----]
[-----------------------------------------------------------------------]
                                          __pm___   __pm___   __pm___

[----------------------------------------------------------]
[------9---7-----------------------------------------------]
[--7---9---7--------------------------------------9br-7~~~~]
[----9------------------------------------7-8-7-8----------]
[-------------------------5-6-7-8-7-8-9-9------------------]
[--------7----7-5-5-6-7-7----------------------------------]
         pm   ________________pm_________________
                                                                 ___x2___
[-----------------------------------------------------------------17-----]
[-5--------8----------10---------13---------15------------20---20---20---]
[-7b-------10b--------12b--------15b--------17b--------19b--19b-------19b]
[------------------------------------------------------------------------]
[------------------------------------------------------------------------]
[------------------------------------------------------------------------]

End Solo

Then play pre chorus and chorus 2 times

Thats all mutherfuckers 1 of the most bitchin solos of all time.
Related for Stoned And Drunk tab
Stoned And Drunk chords by Black Label Society