Guitaretab - guitar tabs
Song name
# A B C D E F G H I J K L M N O P Q R S T U V W X Y Z

Black Label Society - Sold My Soul tab

-----------------------------------------------------------------------
			SOLD MY SOUL  Black Label Society
-----------------------------------------------------------------------
Tabbed by: Travis Wong
Email: travis_wong@hotmail.com

4/4 Time, Key of G

Tuning: EADGBe (Standard)

Intro
e|--------------------------|-----------------------------------------|
B|--------------------------|-----------------------------------------|
G|.----------0--------0-----|---------0-----4h6--6--64h6--6--6------.|
D|.-------4--------------4--|------7-----7---7---7--7---7--7--7------.|
A|-----2-----------2--------|--/5------------0---0--0---0--0--0-------|
E|--0-----------3-----------|-----------------------------------------|

Verse
e|--------------------------------|-----------------------------------|
B|--------------------------------|-----------------------------------|
G|--------0--0--0--------0--0--0--|--------0--0--0-4h6-6--6-4h6-6--6--| 
D|--------4--4--4--------4--4--4--|--------7--7--7--7--7--7--7--7--7--|
A|--------2--2--2--------2--2--2--|--5--5--5--5--5--0--0--0--0--0--0--|
E|--0--0--0--0--0--3--3--3--3--3--|-----------------------------------|

e|--------------------------------|-----------------------------------|
B|--------------------------------|-----------------------------------|
G|--------0--0--0--------0--0--0--|--------0--0--0-4h6-6--6-4h6-6--6--| 
D|--------4--4--4--------4--4--4--|--------7--7--7--7--7--7--7--7--7--|
A|--------2--2--2--------2--2--2--|--5--5--5--5--5--0--0--0--0--0--0--|
E|--0--0--0--0--0--3--3--3--3--3--|-----------------------------------|

e|--------------------------------|-----------------------------------|
B|--------------------------------|-----------------------------------|
G|--------0--0--0--------0--0--0--|--------0--0--0-4h6-6--6-4h6-6--6--| 
D|--------4--4--4--------4--4--4--|--------7--7--7--7--7--7--7--7--7--|
A|--------2--2--2--------2--2--2--|--5--5--5--5--5--0--0--0--0--0--0--|
E|--0--0--0--0--0--3--3--3--3--3--|-----------------------------------|
[ Tab from: http://www.guitaretab.com/b/black-label-society/36283.html ]
e|-----0~~------------------------|------0---------0------------------|
B|-----0~~------------------------|------0---------0------------------|
G|-----0~~------------------------|------0---------2------------------|
D|-----5~~------------------------|------5---------0------------------|
A|-----3~~------------------------|------3---------2------------------|
E|--------------------------------|-----------------------------------|

Chorus
e|--------0-----------0--0--0--0--0--|--------------------------------|
B|--------0-----------0--0--0--0--0--|--------2--2--2-----------------|
G|--------0-----------0--0--0--0--0--|--------2--2--2-----0-----0-----|
D|--------2-----------0--0--0--0--0--|--------2--2--2-----------------|
A|--------2-----------2--2--2--2--2--|--0--0--0--0--0-----------------|
E|--0--0--0--0--2--3--3--3--3--3--3--|-----------------3-----2--------|




e|--------0-----------0--0--0--0--0--|--------------------------------|
B|--------0-----------0--0--0--0--0--|--------2--2--2-----------------|
G|--------0-----------0--0--0--0--0--|--------2--2--2-----0-----0-----|
D|--------2-----------0--0--0--0--0--|--------2--2--2-----------------|
A|--------2-----------2--2--2--2--2--|--0--0--0--0--0-----------------|
E|--0--0--0--0--2--3--3--3--3--3--3--|-----------------3-----2--------|

e|--------0-----------0--0--0--0--0--|--------------------------------|
B|--------0-----------0--0--0--0--0--|--------2--2--2-----------------|
G|--------0-----------0--0--0--0--0--|--------2--2--2-----0-----0-----|
D|--------2-----------0--0--0--0--0--|--------2--2--2-----------------|
A|--------2-----------2--2--2--2--2--|--0--0--0--0--0-----------------|
E|--0--0--0--0--2--3--3--3--3--3--3--|-----------------3-----2--------|

e|--------0-----------0--0--0--0--0--|--------------------------------|
B|--------0-----------0--0--0--0--0--|--------2--2--2-----------------|
G|--------0-----------0--0--0--0--0--|--------2--2--2-----0-----0-----|
D|--------2-----------0--0--0--0--0--|--------2--2--2-----------------|
A|--------2-----------2--2--2--2--2--|--0--0--0--0--0-----------------|
E|--0--0--0--0--2--3--3--3--3--3--3--|-----------------3-----2--------|


Intro x1

Verse x1

Chorus x1

Verse x1

Chorus x1

Solo x1 (untabbed)

Chorus x1

Outro solo x1 (untabbed)
Related for Sold My Soul tab