Song name
# A B C D E F G H I J K L M N O P Q R S T U V W X Y Z

Black Label Society - Phoney Smiles And Fake Hellos tab

Phoney Smiles & Fake Hellos
BLACK LABEL SOCIETY

Tabbed by Pepper Mattin & Skull Dragon
email: icedpepper@hotmail.com
From: www.blacklabelsociety.net

July 26 2001

I'm not sure about the P.H. on the 6th fret. On my Explorer
the 3rd fret sounds right but on my Les Paul the 6th
sounds right. So i wrote 6th cuz Zakk plays a Les and
it's probably what he plays, but judge for your self.

tuning: Turn the low E string down to A so it is tuned
        like this:  e,B,G,D,A,A


with Tremolo
e-----------------------------------------------------|
B-----------------------------------------------------|
G-----------------------------------------------------|
D-----------------------------------------------------|
A-----------------------------------------------------|
A--12--10--6-----5--3--0------------------------------|

verse
e-----------------------------------------------------|
B-----------------------------------------------------|
G-----------------------------------------------------|
D-----------------------------------------------------|
A--------------0h7p0-6-5b6----------------------------|
A--0-0-0-0-0-0-0h7p0-6-5b6----------------------------|

chorus
e-----------------------------------------------------|
B-----------------------------------------------------|
G---------ph*-----------------------------------------|
D-----------------------------------------------------|
A--12--10------------------5--3-3-0-------------------|
A--12--10--6----0--0-0---0h5--3-3-0---0-0-0-0-0-0-----|


e---------------------------------------------------------|
B---------------------------------------------------------|
G---------ph*---------------------------------------------|
D---------------------------------------------------------|
A--12--10------------------5--3-3-0-----------------------|
A--12--10--6----0--0-0---0h5--3-3-0--0-3-0-3-0-3-0-3-0-3--|


e-----------------------------------------------------|
B-----------------------------------------------------|
G---------ph*-----------------------------------------|
D-----------------------------------------------------|
A--12--10------------------5--3-3-0-------------------|
A--12--10--6----0--0-0---0h5--3-3-0---0-0-0-0-0-0-----|

e-----------------------------------------------------|
B-----------------------------------------------------|
G---------ph*-----------------------------------------|
D-----------------------------------------------------|
A--12--10------------------5--3-3-0-------------------|
A--12--10--6----0--0-0---0h5--3-3-0-------------------|


e-----------------------------5--5b7-5b7--------------|
B-----------------------------------------------------|
G-----------------------------------------------------|
D-----------------------------------------------------|
A--0--2-2------------0--2-2---------------------------|
A--0--2-2--0/14\0----0--2-2---------------------------|


e-----------------------------------------------------|
B-----------------------------5b6r5-3-----------------|
G-----------------------------------------------------|
D-----------------------------------------------------|
A--0--2-2------------0--2-2---------------------------|
A--0--2-2--0/14\0----0--2-2---------------------------|

SOLO!!
		     x4         x4       x4
e----------------------|----------|---------|------------|
B----------9--------9--|--------8-|-------7-|------------|
Go--9-9b11---9-9b11---o|-8-8b10---|-7-7b9---|------------|
Do--------------------o|----------|---------|------------|
A----------------------|----------|---------|------------|
A----------------------|----------|---------|------------|

1,3.......................  2..........................
e--------------------------|-----------------------------|
B--------------------------|-----------------------------|
Go-6-4---4-----------------|--6-4---4---------------6----|
Do-----6---6-4-6-4-2-4-2---|------6---6-4-6-4-2-4-2-6----|
A------------------------4-|------------------------4----|
A--------------------------|------------------------4----|

  4.............................................
e------------------------------|
B------------------------------|
G----------------4------------o|
D----2-4-2-4-5-6---6-5-6-4-2--o|
A--4---------------------------|
A------------------------------|
  i'm not sure about this riff.

then play the verse and the chorus again


I think this solo is better...

Skull Dragon

E|---------------------------------------------------------|
B|----7-12-7----7-12-7----7-12-7----7-12-7-----------------|
G|-10--------10--------10--------10--------10--------------|
D|---------------------------------------------------------|
A|---------------------------------------------------------|
A|---------------------------------------------------------|

E|---------------------------------------------------------|
B|----6-11-6-----6-11-6----6-11-6----6-11-6----------------|
G|--9----------9---------9---------9-----------------------|
D|---------------------------------------------------------|
A|---------------------------------------------------------|
A|---------------------------------------------------------|

E|---------------------------------------------------------|
B|-----5--10--5-----5--10--5-----5--10--5-----5--10--5-----|
G|--8------------8------------8------------8---------------|
D|---------------------------------------------------------|
A|---------------------------------------------------------|
A|---------------------------------------------------------|


E|----------------------------------------------------------|
B|----6-11-6-----6-11-6----6-11-6----6-11-6----5-10-5-------|
G|--9----------9---------9---------9---------8--------5-9-5-|
D|----------------------------------------------------------|
A|----------------------------------------------------------|
A|----------------------------------------------------------|

E|---------------------------------------------------------|
B|---------------------------------------------------------|
G|--6-4---4-----------------6-4---4------------------------|
D|------6---6-5-6-5-44----------6---6-5-6-5-4--6-----------|
A|---------------------7-4---------------------4-----------|
A|---------------------------------------------------------|


E|---------------------------------------------------------|
B|--6-4---4---------------------------4--------------------|
G|------6---6-5-6-5-4-4---------4-5-6---6-5-4---454--------|
D|----------------------7-4-4-7----------------------7-----|
A|---------------------------------------------------------|
A|---------------------------------------------------------|

rock on!

-krakpot
Tap to rate this tab
# A B C D E F G H I J K L M N O P Q R S T U V W X Y Z