Song name
# A B C D E F G H I J K L M N O P Q R S T U V W X Y Z

Black Label Society - Berzerkers tab

Help us improve GuitareTab! Take a short survey!
Again another tabs from www.blacklabelsociety.net. check them out for
good tabs, this is a great song so have fun with it from the new album,
1919 Eternal.

Zakk Wylde/BLS
Berzerkers
Tuning:  G g C F A D

The inro is played with bass
D-----------------------------------|
A-----------------------------------|
F-----------------------------------|
C-----------------------------------|
g-----------------------------------|
G---13p12--0-12-0-12-0-12-0-10h12-0-|

D-------------------------------|
A ------------------------------|
F-------------------------------|
C-------------------------------|
g-------------------------------|
G---13p12--0-12-0-12-0-12-0--6~-|

Then guitars (?)chrushes(?) in:
D----------------------------|
A----------------------------|
F----------------------------|
C----------------------------|
g-0-0-0-0-0-0-0-0-0-0-0-0-6~-|
G-0-0-0-0-0-0-0-0-0-0-0-0-6~-|

D-----------------------------------|
A-----------------------------------|
F-----------------------------------|
C-----------------------------------|
g-0-0-0-0-0-0-0-0-0-0-5p3---6p0--5~-|
G-0-0-0-0-0-0-0-0-0-0-----0------5~-|

"Drinking,puking etc."riff
D-----------------------------------------|
A-----------------------------------------|
F-----------------------------------------|
C-----------------------------------------|
g-----------------------------------------|
G-12~--11~--10~--0-3-0---6~--5~--3Br~--0--|
                            a.h  a.h
Outro
D---------------------------|
A---------------------------|
F--3s2-2-2--2-2--2-2--0h2-2-|
C--x-x-x-x--x-x--x-x--------|
g--1p0-0-0--0-0--0-0--------|
G---------------------------|

D--------------------------------|
A--------------------------------|
F--3s2-2-2--2-2------------------|
C--x-x-x-x--x-x------------------|
g--1p0-0-0--0-0--0-0-0---0-0-0---|
G----------------0-0-0---0-0-0---|
Related for Berzerkers tab