Song name
# A B C D E F G H I J K L M N O P Q R S T U V W X Y Z

Black Label Society - Demise Of Sanity tab

Demise Of Sanity by Black Label Society
Tabbed by: Empo
Tuning: Drop C (C,G,C,F,A,D)

This is 100% of my own work. Pretty simple song, but it's fun to play (one of my favorites), i hope you like this tab. Enjoy!




Riff 1

|-------------------------|----------------------|----------------------|--------------------------||
|-------------------------|----------------------|----------------------|--------------------------||
|-------------------------|----------------------|----------------------|--------------------------||
|---0--0--6/5--3--0----0--|----0--6/5--3--0----0-|-----0--6/5--3--0---0-|----0--3--0---------------||
|---0--0--6/5--3--0----0--|----0--6/5--3--0----0-|-----0--6/5--3--0---0-|----0--3--0---5p3-5p3-----||
|---0--0--6/5--3--0----0--|----0--6/5--3--0----0-|-----0--6/5--3--0---0-|----0--3--0---------------||
 


Riff 2
            P.N                     P.N
|---------|------------|----------|---------||
|---------|------------|----------|---------||
|---------|------------|----------|---------||
|---5b----|--5---------|----------|---------||
|---------|------------|--3pbr----|--3------||
|---------|------------|----------|---------||
           (hold bend)



Riff 3
                           P.H               
|------------|-------------------||
|------------|-------------------||
|------------|-------------------||
|---2--------|-(2)---------------||
|---2--------|-(2)---------------||
|---2--------|-(2)----0--2--3~---||
                      X  X



Riff 4

|------------------|-------------------|-------------------|--------------------||
|------------------|-------------------|-------------------|--------------------||
|------------------|-------------------|-------------------|--------------------||
|----0--0-------1--|---0--0--------1---|---0--0--------1---|-0-6-6-0-6-6--0-6---||
|----0--0-------1--|---0--0--------1---|---0--0--------1---|-0-6-6-0-6-6--0-6---||
|----0--0-------1--|---0--0--------1---|---0--0--------1---|-0-6-6-0-6-6--0-6---||
                                                             X X X X X X  X X



Solo

|---5-----------5-----------5-----------5--------------|---8---------------8---------------8---------------8-----------------|
|-----8p6p5h6h8---8p6p5h6h8---8p6p5h6h8---8p6p5h6h8---*|*----11p10p8h10h11---11p10p8h10h11---11p10p8h10h11---11p10p8h10h11--*|
|------------------------------------------------------|---------------------------------------------------------------------|
|------------------------------------------------------|---------------------------------------------------------------------|
|-----------------------------------------------------*|*-------------------------------------------------------------------*|
|------------------------------------------------------|---------------------------------------------------------------------|




|---12----------------12----------------12----------------12------------------|
|*-----15p13p12h13h15----15p13p12h13h15----15p13p12h13h15----15p13p12h13h15--*|
|-----------------------------------------------------------------------------|
|-----------------------------------------------------------------------------|
|*---------------------------------------------------------------------------*|
|-----------------------------------------------------------------------------|



|---13----------------13-------------15----------------15--------------|--17----------------17-------------20b--||
|------17p15p13h15h17----17p15p13-------18p17p15h17h18----18p17p15-----|-----20p18p17h18h20----20p18p17---------||
|----------------------------------------------------------------------|----------------------------------------||
|----------------------------------------------------------------------|----------------------------------------||
|----------------------------------------------------------------------|----------------------------------------||
|----------------------------------------------------------------------|----------------------------------------||



Ending riff
                                P.N
|------------------------|-------------||
|------------------------|-------------||
|------------------------|-------7~--\-||
|------------------------|-------------||
|--5p3-5p3-5p3-5p3-------|-5p3---------||
|------------------------|-----\-------||
Tap to rate this tab
# A B C D E F G H I J K L M N O P Q R S T U V W X Y Z