Song name
# A B C D E F G H I J K L M N O P Q R S T U V W X Y Z

Black Label Society - Black Sunday tab

Artist: Black Label Society
Album: Order Of The Black
Song: Black Sunday

Tuning (Low to High): DGCFAD

First off, I haven't got the intro solo or the main solo, but I'll post them as comments 
as soon as I can.

Verse:

Pt. 1:

  "      "      "     "
D|----------------------------------|
A|----------------------------------|
F|----------------------------------|
C|7^5----7^5----7^5----7^5----------|
G|---0------0------0------0-0-0-0-0-|
D|----------------------------------|

PM   .      .      .      . . . . .


VPt. 2:

  "     "           "         "      "
D|---------------------------------------|
A|---------------------------------------|
F|---------------------------------------|
C|7^5----7^5----5^7-7--------------------|
G|---0------0----------5^7-7--5>7<5--3---|
D|---------------------------------------|

PM   .      .

Play these two short riffe as one phrase, and at the end of the second phrase, go back 
to the start of the first riff.


Chorus:

Pt. 1:


D|---------------------------|
A|---------------------------|
F|---------------------------|
C|5^7--5^7--5----------------|
G|------------5>7<5--3---3-5-|
D|---------------------5-----|

PM                   . .

Pt. 2:


D|---------------------------|
A|---------------------------|
F|---------------------------|
C|5^7--5^7--5------------5---|
G|------------5>7<5--3---3---|
D|---------------------5-----|

PM                   . .

Pt. 3:


D|-----------------------------------------------|
A|-----------------------------------------------|
F|--------------------------------7-9----------10|
C|5^7--5^7--5------------5/7-5/7--5-7----------8-|
G|------------5>7<5--3---3/5-3/5------0-0-0-0-0--|
D|---------------------5-------------------------|

PM                   . .              . . . . .



Bridge:

                               "
D|------------------------------------------------|
A|------------------------------------------------|
F|------------------------------------------------|
C|5----------------------------5------------------|
G|3--5/7\5----------------------------------------|
D|---------3-333-33-333-33-33-3-------------------|

PM           ... .. ... .. .. .

Repeat this 3 times, then play the following

D|--------------------------------------------------|
A|--------------------------------------------------|
F|--------------------------------------------------|
C|5/12-12-12-12-12-12-12-12-11-11-11-11-11-11-11-11-|
G|3/10-10-10-10-10-10-10-10--9--9--9--9--9--9--9--9-|
D|--------------------------------------------------|

This finishes and the rhythm guitar goes back to playing the verse riff. Play the verse 
riff until the solo when the chorus will kick in.

Outro:

Pt. 1:

  "      "      "     "
D|----------------------------------|
A|----------------------------------|
F|----------------------------------|
C|7^5----7^5----7^5----7^5----------|
G|---0------0------0------0-0-0-0-0-|
D|----------------------------------|

PM   .      .      .      . . . . .

Pt. 2

  "      "                   "         "
D|--------------------------------------|
A|--------------------------------------|
F|--------------------------------------|
C|7^5----7^5----5^7-7-------------------|
G|---0------0-----------5-7-7-5/7\5-3---|
D|-------------------------------------5|

PM   .      .




So, those are the rhytm parts for Black Sunday. Killer track if done right, just be sure 
to get the harmonics on the pull offs and you should be rockin'
Feel free to comment or rate, and as always enjoy the music!
S/D/M/F
Tap to rate this tab
# A B C D E F G H I J K L M N O P Q R S T U V W X Y Z