Song name
# A B C D E F G H I J K L M N O P Q R S T U V W X Y Z

Black Label Society - My Dying Time tab

Artist: Black Label Society
Song: My Dying Time
Album: Catacombs Of The Black Vatican

Tuning (Low to high): DGCFAD

Intro:
Lead
D|-------------------------------------|
A|-------------------------------------|
F|---------5---4------4--2-------------|    Play 8 times
C|-2-4-4-4---4-----4--------4--2-------|
G|-------------------------------------|
D|-------------------------------------|

This part is played using the bridge position on a clean channel with a slow 
chorus/rotovibe pedal and either delay or reverb. Either sounds good.

Rhythm
D|-------------------------------------|
A|-------------------------------------|
F|-------------------------------------|    Play 4 times
C|-------------------------------------|
G|-2-4-X-X-4-2-X-X-X-2-4-X-4-2-X-X-----|
D|-0-2-X-X-2-0-X-X-X-0-2-X-2-0-X-X-----|

This is also played using the bridge position. Use a lot of distortion on a high gain 
setting for this.

Lead
D|-------------------------------------|
A|---------5bu6r5----------------------|
F|---------4bu5r4--2-4-2---------------|
C|-2-4-4-4---------------4-2-----------|
G|-------------------------------------|
D|-------------------------------------|

Guitar 1 plays this over the rhythm. Guitar 1 should also have switched to distortion 
now too. (Alternatively, if you have a guitar with 2 volumes, you could lower the neck 
position volume and use that for the leans and use the pickup switch to change to a distortion)

Rhythm
D|-----------------------------------------------------------------|
A|-----------------------------------------------------------------|
F|-----------------------------------------------------------------|
C|-----------------------------------------------------------------|
G|-2-4-4-4-4-2-2-2-2-2-4-4-4-2-2-2-2-4-4-4-4-2-2-2-2-7-9-9-----7-4-|
D|-0-2-2-2-2-0-0-0-0-0-2-2-2-0-0-0-0-2-2-2-2-0-0-0-0-5-7-7-5h7-5-2-|

PM     . .     . . .     .     . .     . .     . . .

Verse:
Lead
D|-----------------------------------------------------------------|
A|-----------------------------------------------------------------|
F|-----------------------------------------------------------------|
C|-11------------------------------14----------------------------9-|
G|-9-------------------------------12----------------------------7-|
D|-----------------------------------------------------------------|

Let Ring



Rhythm
D|-----------------------------------------------------------------|
A|-----------------------------------------------------------------|
F|-----------------------------------------------------------------|
C|-----------------------------------------------------------------|
G|-2-4-4-4-4-2-2-2-2-2-4-4-4-2-2-2-2-4-4-4-4-2-2-2-2-7-9-9-----9-9-|
D|-0-2-2-2-2-0-0-0-0-0-2-2-2-0-0-0-0-2-2-2-2-0-0-0-0-5-7-7-5h7-7-7-|

^Play 3 times.



D|-----------------------------------------------------------------|
A|-----------------------------------------------------------------|
F|-----------------------------------------------------------------|
C|-----------------------------------------------------------------|
G|-2-4-4-4-4-2-2-2-2-2-4-4-4-2-2-2-2-4-4-4-4-2-2-2-2-7-9-9---------|
D|-0-2-2-2-2-0-0-0-0-0-2-2-2-0-0-0-0-2-2-2-2-0-0-0-0-5-7-7-5h7-7*--|

After playing the first section 3 times, then play this before the chorus, make sure to 
hit the pinched harmonic at the end.

Chorus

Both guitars

D|------------------------------------|
A|------------------------------------|
F|------------------------------------|
C|------------------------------------|
G|-2-4-4-4-4-2-2-2-2-----------7-9----|
D|-0-2-2-2-2-0-0-0-0-5-7-7-5-7--------|

This is what I've got so far, but this seems fairly accurate. I'll start work soon on 
the solo, the rhythm for the solo is similar to the verse. Actually I think it's the same. 
This is a real easy song to play and it's fun too.

Feel free to post comments, corrections or additions and rate it if you want, otherwise 
just keep on playin' and keep it loud!
S.D.M.F.
Tap to rate this tab
 
# A B C D E F G H I J K L M N O P Q R S T U V W X Y Z