Song name
# A B C D E F G H I J K L M N O P Q R S T U V W X Y Z

Black Label Society - I Never Dreamed tab

Black Label Society
I never Dreamed
 All rights reserved. This is for scholarly study only.

Whole Step Down- D-G-C-F-A-D

Black Label Society recorded this on the Mafia Album.

Its a slow burner (for Zakk) with a really cool run at the end. The run has a couple 
notes I can quite decide,
You'll See for yourself. Anyways Enjoy!!

PS- if anyone knows what those notes are let me know, they're making me crazy!!


Phrase 1

e|---------------------------------------------------------------------------12---------------------|
B|---12b14r12-------------------9--10--9-11-9-----9-----------12-------12------------------12-------|
G|---------------------11b13------------------------11----11b13----------------13r11b13---11b13r11--|
D|--------------------------------------------------------------------------------------------------|
A|--------------------------------------------------------------------------------------------------|
E|--------------------------------------------------------------------------------------------------|

e|-------------------------------------------------------------------------------------|
B|-------------------------------------------------------------------------------------|
G|----9-------9/11-9/11---9b10----------------------------9--11---11b12r11-------9\0---|
D|--------11----------------------11\9/11----------9--11-------------------------------|
A|------------------------------------------9---11-------------------------------------|
E|-------------------------------------------------------------------------------------|

Phrase 2

e|--14b15---------14b16------------14b16r14--------12------------------------------------|
B|----------------14b16---------------------------------12------14--------12/14---12-----|
G|---------------------------------------------------------------------------------------|
D|---------------------------------------------------------------------------------------|
A|---------------------------------------------------------------------------------------|
E|---------------------------------------------------------------------------------------|

e|----14---12-----12------12----------------------|
B|------------14------14-----14\12----12----------|
G|---------------------------------13-------------|
D|------------------------------------------------|
A|------------------------------------------------|
E|------------------------------------------------|


Phrase 3

e|-----------------------------------------9-------------------------------------------------------|
B|-----9----------9-------------------9--------9-------12-----9--------9------------------9----12--|
G|---------11----------------11b13-------------------------------11/12---11b12r11-----9------------|
D|-------------------------------------------------------------------------------------------------|
A|-------------------------------------------------------------------------------------------------|
E|-------------------------------------------------------------------------------------------------|

Phrase 3- part 2--> Long Bends Held Out
e|------------------------------------------------------------------------------------------------|
B|-----12b14----------r12------9-------12b14-----------r12-------9--------12b14--------r12\\\\\---|
G|------------------------------------------------------------------------------------------------|
D|------------------------------------------------------------------------------------------------|
A|------------------------------------------------------------------------------------------------|
E|------------------------------------------------------------------------------------------------|

RUN- This is Played simultaneously as the Second part of Phrase 3- you get to choose. 
Both sound good live!
     The (X)s are the run notes I cant seem to figure out...give it a shot

e|---------------------------------------------------------------------------------------------|
B|--------------------------------------------------------------------------------------12b14--|
G|----------------------------------------------------------6------------7—9—11--11—7----------|
D|--------------------(X)----------------(x)-------6---7--9----7--/--11------------------------|
A|------------4--6--7-----4--6---7--/--9----7--9-----------------------------------------------|
E|---------------------------------------------------------------------------------------------|
Tap to rate this tab
 
# A B C D E F G H I J K L M N O P Q R S T U V W X Y Z