Song name
# A B C D E F G H I J K L M N O P Q R S T U V W X Y Z

Black Label Society - Destructon Overdrive tab

Hey ppl its me again. this isnt very hard to play.(its actually in C tuning)

e]----------------|-------------------------------------|--------------||
B]--19-----19-----|-------------------------------------|--------------||
G]----------------|-------------------------------------|--------------||
D]----------------|-------------------------------------|--------------||
A]----------------|-------------------------------------|-9p7---7------||
E]------19----19\-|-0-2p0-3~~-0-2p3-3~~-0-2p3-p-2p3-3~~-|-----8---8-7\-||

e]-----------------------------------|-----------------||
B]-----------------------------------|-----------------||
G]-----------------------------------|-----------------||
D]-----------------------------------|-----------------||play X 2
A]-----------------------------------|-|hold bend-|--7-||
E]-0-2p3-3~~-0-2p3-3~~-0-2p3-2p3-3~~-|-7^^7^^7^^7^-7-5-||

Next is..

e]--------------------------------------------||
B]--------------------------------------------||
G]--------------------------------------------||
D]------------------------------------------0-||
A]-----------------------4---2--------------x-||
D]-------------------------------3----2h3p2-3-||
E]---0-0-0-0-0-0-0-0-0-2---2---2---2----------||
P.M. .................

thats basically it, i havent figured out the solo yet, but that is basiclly it.  ENJOI
Tap to rate this tab
# A B C D E F G H I J K L M N O P Q R S T U V W X Y Z