Song name
# A B C D E F G H I J K L M N O P Q R S T U V W X Y Z

Black Label Society - Just Killing Time tab

Tune Down 1/2 step: Low to High- D# G# C# F# A# D#
 Neck pickup, lots of Reverb

Intro                                 4x's
1|-----------------|------------------|
2|--------4--------|---------1-------.|
3|---5-------5-----|---3--------3-----|
4|------5--------5-|------3--------3--|
5|-3---------------|-1---------------.|
6|-----------------|------------------|
 Verse
   I sit reflecting  
1|-----------------|------------------|
2|--------4--------|---------1--------|
3|---5-------5-----|---3--------3-----|
4|------5--------5-|------3--------3--|
5|-3---------------|-1----------------|
6|-----------------|------------------|
  I feel the end has begun
1|-----------------|------------------|
2|--------4--------|---------1--------|
3|---5-------5-----|---3--------3-----|
4|------5--------5-|------3--------3--|
5|-3---------------|-1----------------|
6|-----------------|------------------|
  It seems my days
1|-----------------|------------------|
2|--------4--------|---------1--------|
3|---5-------5-----|---3--------3-----|
4|------5--------5-|------3--------3--|
5|-3---------------|-1----------------|
6|-----------------|------------------|
  Now mirror the setting sun
1|-----------------|------------------|
2|--------4--------|---------1--------|
3|---5-------5-----|---3--------3-----|
4|------5--------5-|------3--------3--|
5|-3---------------|-1----------------|
6|-----------------|------------------|
  So many places
1|-----------------|------------------|
2|--------4--------|---------1--------|
3|---5-------5-----|---3--------3-----|
4|------5--------5-|------3--------3--|
5|-3---------------|-1----------------|
6|-----------------|------------------|
  That I've been
1|-----------------|------------------|
2|--------4--------|---------1--------|
3|---5-------5-----|---3--------3-----|
4|------5--------5-|------3--------3--|
5|-3---------------|-1----------------|
6|-----------------|------------------|
  The ride that was long seems so short in the terms of now and then
1|-----------------|------------------|
2|--------4--------|---------1--------|
3|---5-------5-----|---3--------3-----|
4|------5--------5-|------3--------3--|
5|-3---------------|-1----------------|
6|-----------------|------------------|
  


ooooooo For all that has been
1|-------------------------------------------------------------
2|-------------------------------------------------------------
3|-------5---------------4--------------2---------------2------
4|---6-----6--------5-------5-------3------3--------3-----3----
5|-----6-----6---------5-------5-------3------3-------3-----3--
6|-4-------------3----------------1--------------1-------------
                          And all that is
1|-------------------------------------------------------------
2|-------------------------------------------------------------
3|-------5---------------4--------------2---------------2------
4|---6-----6--------5-------5-------3------3--------3-----3----
5|-----6-----6---------5-------5-------3------3-------3-----3--
6|-4-------------3----------------1--------------1-------------
                          And all thats to be    
1|-------------------------------------------------------------
2|-------------------------------------------------------------
3|-------5---------------4--------------2---------------2------
4|---6-----6--------5-------5-------3------3--------3-----3----
5|-----6-----6---------5-------5-------3------3-------3-----3--
6|-4-------------3----------------1--------------1-------------
   (lord im just killin time)
1|-------------------------------------------------------------
2|-------------------------------------------------------------
3|-------5---------------4--------------2---------------2------
4|---6-----6--------5-------5-------3------3--------3-----3----
5|-----6-----6---------5-------5-------3------3-------3-----3--
6|-4-------------3----------------1--------------1-------------
  And times killin' meee (silence when doing this live)
1|-----------------|------------------|
2|--------4--------|---------1--------|
3|---5-------5-----|---3--------3-----|
4|------5--------5-|------3--------3--|
5|-3---------------|-1----------------|
6|-----------------|------------------|

1|-----------------|------------------|
2|--------4--------|---------1--------|
3|---5-------5-----|---3--------3-----|
4|------5--------5-|------3--------3--|
5|-3---------------|-1----------------|
6|-----------------|------------------|
  Dead man breathin'
1|-----------------|------------------|
2|--------4--------|---------1--------|
3|---5-------5-----|---3--------3-----|
4|------5--------5-|------3--------3--|
5|-3---------------|-1----------------|
6|-----------------|------------------|
  Just takin up space
1|-----------------|------------------|
2|--------4--------|---------1--------|
3|---5-------5-----|---3--------3-----|
4|------5--------5-|------3--------3--|
5|-3---------------|-1----------------|
6|-----------------|------------------|
  Calloused and weathered
1|-----------------|------------------|
2|--------4--------|---------1--------|
3|---5-------5-----|---3--------3-----|
4|------5--------5-|------3--------3--|
5|-3---------------|-1----------------|
6|-----------------|------------------|
  Like the lines on one's face
1|-----------------|------------------|
2|--------4--------|---------1--------|
3|---5-------5-----|---3--------3-----|
4|------5--------5-|------3--------3--|
5|-3---------------|-1----------------|
6|-----------------|------------------|
  Dead man breathin'
1|-----------------|------------------|
2|--------4--------|---------1--------|
3|---5-------5-----|---3--------3-----|
4|------5--------5-|------3--------3--|
5|-3---------------|-1----------------|
6|-----------------|------------------|
  My conscene is bare
1|-----------------|------------------|
2|--------4--------|---------1--------|
3|---5-------5-----|---3--------3-----|
4|------5--------5-|------3--------3--|
5|-3---------------|-1----------------|
6|-----------------|------------------|
  The line of my soul is torn yet I no longer care
1|-----------------|------------------|
2|--------4--------|---------1--------|
3|---5-------5-----|---3--------3-----|
4|------5--------5-|------3--------3--|
5|-3---------------|-1----------------|
6|-----------------|------------------|
ooooooo For all that has been
1|------------------------------------------------------------
2|------------------------------------------------------------
3|-------5---------------4--------------2---------------2-----
4|---6-----6--------5-------5-------3------3--------3-----3---
5|-----6-----6---------5-------5-------3------3-------3-----3-
6|-4-------------3----------------1--------------1------------
                          And all that is
1|------------------------------------------------------------
2|------------------------------------------------------------
3|-------5---------------4--------------2---------------2-----
4|---6-----6--------5-------5-------3------3--------3-----3---
5|-----6-----6---------5-------5-------3------3-------3-----3-
6|-4-------------3----------------1--------------1------------
                          And all thats to be    
1|------------------------------------------------------------
2|------------------------------------------------------------
3|-------5---------------4--------------2---------------2-----
4|---6-----6--------5-------5-------3------3--------3-----3---
5|-----6-----6---------5-------5-------3------3-------3-----3-
6|-4-------------3----------------1--------------1------------
   (lord im just killin time)
1|------------------------------------------------------------
2|------------------------------------------------------------
3|-------5---------------4--------------2---------------2-----
4|---6-----6--------5-------5-------3------3--------3-----3---
5|-----6-----6---------5-------5-------3------3-------3-----3-
6|-4-------------3----------------1--------------1------------
  And times killin' meee (Silence when doing this line)
1|-----------------|------------------|
2|--------4--------|---------1--------|
3|---5-------5-----|---3--------3-----|
4|------5--------5-|------3--------3--|
5|-3---------------|-1----------------|
6|-----------------|------------------|
                         2x's
1|-----------------|------------------|
2|--------4--------|---------1-------.|
3|---5-------5-----|---3--------3-----|
4|------5--------5-|------3--------3--|
5|-3---------------|-1---------------.|
6|-----------------|------------------|

SOLO                              8x's
1|-----------------|------------------|
2|--------4--------|---------1-------.|
3|---5-------5-----|---3--------3-----|
4|------5--------5-|------3--------3--|
5|-3---------------|-1---------------.|
6|-----------------|------------------|
                                                             4x's
1|-------------------------------------------------------------|
2|------------------------------------------------------------.|
3|-------5---------------4--------------2---------------2------|
4|---6-----6--------5-------5-------3------3--------3-----3----|
5|-----6-----6---------5-------5-------3------3-------3-----3-.|
6|-4-------------3----------------1--------------1-------------|
 ooooooo For all that has been
1|--------------------------------------------------------------
2|--------------------------------------------------------------
3|-------5---------------4--------------2---------------2-------
4|---6-----6--------5-------5-------3------3--------3-----3-----
5|-----6-----6---------5-------5-------3------3-------3-----3---
6|-4-------------3----------------1--------------1--------------
                          And all that is
1|--------------------------------------------------------------
2|--------------------------------------------------------------
3|-------5---------------4--------------2---------------2-------
4|---6-----6--------5-------5-------3------3--------3-----3-----
5|-----6-----6---------5-------5-------3------3-------3-----3---
6|-4-------------3----------------1--------------1--------------
                          And all thats to be    
1|--------------------------------------------------------------
2|--------------------------------------------------------------
3|-------5---------------4--------------2---------------2-------
4|---6-----6--------5-------5-------3------3--------3-----3-----
5|-----6-----6---------5-------5-------3------3-------3-----3---
6|-4-------------3----------------1--------------1--------------
   (lord im just killin time)
1|--------------------------------------------------------------
2|--------------------------------------------------------------
3|-------5---------------4--------------2---------------2-------
4|---6-----6--------5-------5-------3------3--------3-----3-----
5|-----6-----6---------5-------5-------3------3-------3-----3---
6|-4-------------3----------------1--------------1--------------
  And times killin' meee (Silence when doing this line)
1|-----------------|------------------|
2|--------4--------|---------1--------|
3|---5-------5-----|---3--------3-----|
4|------5--------5-|------3--------3--|
5|-3---------------|-1----------------|
6|-----------------|------------------|
                                4x's
1|-----------------|------------------|
2|--------4--------|---------1-------.|
3|---5-------5-----|---3--------3-----|
4|------5--------5-|------3--------3--|
5|-3---------------|-1---------------.|
6|-----------------|------------------|

End with C chord!
1|------||
2|----4-||
3|---5--||
4|--5---||
5|-3----||
6|------||

1|---------------------3--6-----------|
2|----------------4--6----------------|
3|-----------3--5---------------------|
4|------3--5--------------------------|
5|-3--6-------------------------------|
6|------------------------------------|

1|--------------------------6--8-----------|
2|---------------------6--8----------------|
3|----------------5--8---------------------|
4|-----------5--8--------------------------|
5|------6--8-------------------------------|
6|-6--8------------------------------------|

1|-13--11------------------------------------------------------|
2|---------13--11----------------------------------------------|
3|----------------12--11--10-----------------------------------|
4|---------------------------13--12--10------------------------|
5|----------------------------------------13--12--10-----------|
6|---------------------------------------------------11--10--8-|

1|-----------------------------15--18-----------|
2|----------------------16--18------------------|
3|---------------15--17-------------------------|
4|--------15--17--------------------------------|
5|-15--18---------------------------------------|
6|----------------------------------------------|
Tap to rate this tab
# A B C D E F G H I J K L M N O P Q R S T U V W X Y Z