Song name
# A B C D E F G H I J K L M N O P Q R S T U V W X Y Z

Black Label Society - Suicide Messiah tab

           -----------------------------------------------------
			     Suicide Messiah-BLS
           -----------------------------------------------------
Tabbed by:Satan Man
Email: morbid_damnation666@hotmail.com

Tuning:CGCFAD

Intro
D|-------------------------------------------|
A|-------------------------------------------|
F|-------------------------------------------|
C|-------------------------------------------|
G|-3h5------5-----5-----5--8p-5-0-8p--5-0----|
C|-0----0-0---0-0-----0----------------------|

D|------------------------------|
A|------------------------------|
F|------------------------------|
C|---------------------3----5---|
G|-3h5-----5-----5-----3----5---|
C|-0---0-0---0-0-----0-3----5---|

Main Riff 1
D|---------------------------------------------|
A|---------------------------------------------|
F|---------------------------------------------|
C|---------------------------------------------|
G|-0------------3p0-----------0-------3p0------|
C|-0------x--x--3p0--x--x--x--0----x--3p0--x-x-|

Chorus
D|--------------------------------------|
A|--------------------------------------|
F|--------------------------------------|
C|-3----5-------------------------------|
G|-3----5-------------3---------3----5--|
C|-3----5----x-x--x-x-3--x--x-x-3----5--|

D|--------------------------|
A|--------------------------|
F|--------------------------|
C|--------------------------|
G|----------3---------3---5-|
C|-x-x--x-x-3--x--x-x-3---5-|

D|--------------------------------------------------|
A|--------------------------------------------------|
F|--------------------------------------------------|
C|-3----5\----0-------------------------------------|
G|-3----5\----0----5-5-5-5-5-5-5-5-5-5-5-5-5-5-5-5--|
C|-3----5\----0----5-5-5-5-5-5-5-5-5-5-5-5-5-5-5-5--|
                   . . . . . . . . . . . . . . . .

D|---------------------------------------|
A|---------------------------------------|
F|---------------------------------------|
C|-0-------------------------------------|
G|-0----5-5-5-5-5-5-5-5-5-5-5-5-5-5-5-5--|
C|-0----5-5-5-5-5-5-5-5-5-5-5-5-5-5-5-5--|
        . . . . . . . . . . . . . . . .

D|--------------------------------------------------|
A|--------------------------------------------------|
F|--------------------------------------------------|
C|-0---------------------------------------3----5\--|
G|-0----5-5-5-5-5-5-5-5-5-5-5-5-5-5-5-5----3----5\--|
C|-0----5-5-5-5-5-5-5-5-5-5-5-5-5-5-5-5----3----5\--|
        . . . . . . . . . . . . . . . .

Solo
D|-17~~~~~~17(19)------------------------------|
A|---------------17(18)--17(18)(17)15--15~~~---|
F|-----------------------------------15--------|
C|---------------------------------------------|
G|---------------------------------------------|
C|---------------------------------------------|

D|--------10---------------10--------------10--------------10--------|
A|-----------13p10-13(15)-----13p10-----------13p10-13(15)----13p10--|
F|-12(14)---------------------------12(14)---------------------------|
C|-------------------------------------------------------------------|
G|-------------------------------------------------------------------|
C|-------------------------------------------------------------------|


D|-15p13----13-------13----------------------------------------|
A|-------15----15p13----13-15-13-------13----------------------|
F|-------------------------------14p13----12-13-12p10----10~~~-|
C|----------------------------------------------------12-------|
G|-------------------------------------------------------------|
C|-------------------------------------------------------------|

D|-17~~~~~~-17(19)------------------------------------|
A|-----------------17(18)--17(18)-17(18)(17)-15----15-|
F|----------------------------------------------15----|
C|----------------------------------------------------|
G|----------------------------------------------------|
C|----------------------------------------------------|

D|--------------------------------10h13p10----10h13p10----10--|
A|-10h13p10-----10h13p10----10h13----------13----------13-----|
F|----------12-----------12-----------------------------------|
C|------------------------------------------------------------|
G|------------------------------------------------------------|
C|------------------------------------------------------------|

D|-------------------------------10h13p10----10h13p10----10h13-|
A|-10h13p10----10h13p10----10h13----------13----------13-------|
F|----------12----------12-------------------------------------|
C|-------------------------------------------------------------|
G|-------------------------------------------------------------|
C|-------------------------------------------------------------|

D|-10h15p10----10h15p10----10h13---------------------------------|
A|----------13----------13-------10h13p10----10h13p10----10h13---|
F|----------------------------------------12----------12---------|
C|---------------------------------------------------------------|
G|---------------------------------------------------------------|
C|---------------------------------------------------------------|

D|-202020202020202020(22)~~~~~~~~------------|
A|-------------------------------------------|
F|-------------------------------------------|
C|-------------------------------------------|
G|-------------------------------------------|
C|-------------------------------------------|

D|-(15-3)h15-----------|    \
A|---------------------|     \
F|---------------------|      \
C|---------------------|       \
G|---------------------|        \
C|---------------------|         \
                       \
D|-(17-5)h17----------------|           \
A|--------------------------|              Tap This Bit(Tap each bit about 4 times)
F|--------------------------|
C|--------------------------|          /
G|--------------------------|         /
C|--------------------------|        /
                    /
D|-(20-8)h20--------|      /
A|------------------|     /
F|------------------|    /
C|------------------|   /
G|------------------|  /
C|------------------|

D|--------------------------------------------------------20(22)--(20)-(22)-|
A|-20(22)--(20)-20(22)--(20)--20-(22)--(20)-20-(22)~~~~~~~-------------(21)-|
F|--------------20(21)--(20)--20-(21)--(20)-20-(21)~~~~~~~------------------|
C|--------------------------------------------------------------------------|
G|--------------------------------------------------------------------------|
C|--------------------------------------------------------------------------|

Bridge
D|--------------------------------|
A|--------------------------------|
F|--------------------------------|
C|--------------------------------|
G|----5----5----5-----7-----7h8p7-|
C|-0-----0----0----0------0-------|

D|-----------------------------|
A|-----------------------------|
F|-----------------------------|
C|-----------------------------|
G|----3----3----3---7----7h8p7-|
C|-0----0----0----0----0-------|

D|--------------------------------|
A|--------------------------------|
F|--------------------------------|      Play Twice
C|--------------------------------|
G|----5----5----5-----7-----7h8p7-|
C|-0-----0----0----0------0-------|

D|--------------------------------|
A|--------------------------------|
F|--------------------------------|
C|--------------------------------|
G|----3----3----3-----5-----7h8p7-|
C|-0-----0----0----0------0-------|

Main Riff 2
D|----------------------------10-13-16-13h16p10-13p10--|
A|-13(15)-(13)(15)-\-10h13h16--------------------------|
F|-----------------------------------------------------|
C|-----------------------------------------------------|
G|-----------------------------------------------------|
C|-----------------------------------------------------|

D|-------------10-16-13-16-10h13p10--------------10-13-16-13-16-10h13p10-|
A|-13p10-13h16----------------------13--10-13-16-------------------------|
F|-----------------------------------------------------------------------|
C|-----------------------------------------------------------------------|
G|-----------------------------------------------------------------------|
C|-----------------------------------------------------------------------|

D|----10h13p10------------------------------------------------------|
A|-16----------16--13-16p13p10-13p10-----10----10-10-10----------13-|
F|------------------------------------14----14----------12(14)------|
C|------------------------------------------------------------------|
G|------------------------------------------------------------------|
C|------------------------------------------------------------------|

D|-10------------------------------------------------------|
A|----13p10-----------------------------------------13~~~~-|
F|----------13-12(14)(12)h10----12----10-12(14)~~~~~-------|
C|---------------------------12----12----------------------|
G|---------------------------------------------------------|
C|---------------------------------------------------------|

D|---------------------------------|
A|-(15)----(13)---(15)~~~~~~~~~~~~-|
F|---------------------------------|
C|---------------------------------|
G|---------------------------------|
C|---------------------------------|

D|----12-------------13-14-------15-------16-------17-------|
A|-10----11-------12-------13-------14-------15-------16----|
F|----------10-11-------------12-------13-------14-------15-|
C|----------------------------------------------------------|
G|----------------------------------------------------------|
C|----------------------------------------------------------|

D|-18-------19---------------------|
A|----17-------18------------------|
F|-------16-------17-19~~~~~~~~~~~-|
C|---------------------------------|
G|---------------------------------|
C|---------------------------------|

D|-----------------------13p10----------10----------10-------12p10----|
A|-15~~~~~~~~---16p13p10-------13p10h13----13p10h13----13p10-------10-|
F|--------------------------------------------------------------------|
C|--------------------------------------------------------------------|
G|--------------------------------------------------------------------|
C|--------------------------------------------------------------------|

D|-13p10-------13p10--------------------------------|
A|-------13p10-------13p10-13p10-------13p10--------|
F|-------------------------------12p10-------12p10--|
C|--------------------------------------------------|
G|--------------------------------------------------|
C|--------------------------------------------------|

| Anything like this 12(14) is a bend up
| Anything like this 12(14((13) is bend up then bend down
| /  slide up
| \  slide down
| h  hammer-on
| p  pull-off
| ~  vibrato
| +  harmonic
| x  Mute note
Tap to rate this tab
# A B C D E F G H I J K L M N O P Q R S T U V W X Y Z