Song name
# A B C D E F G H I J K L M N O P Q R S T U V W X Y Z

Black Label Society - Forever Down tab

-----------------------------------------------------------------------------
			     FOREVER DOWN - Black Label Society
-----------------------------------------------------------------------------
Tabbed by: Tyler Batchelder
Email: eternalanamocity@aol.com

Tuning: drop D
Repeat as many times as needed exept only play 15/0 once when the distortion starts
e|--------------------------------------------------------------------------|
B|--------------------------------------------------------------------------|
G|--------------------------------------------------------------------------|
D|---------2-2---------2--------2-2-2-4-5--2-2----------2---------2-2-2-4-5-|
A|-15/0----2-2---------2-----5~-2-2-2-4-5--2-2----------2-----5b~-2-2-2-4-5-|
E|---------0-0-5-3-5*~-0-5-3----0-0-0-4-5--0-0-5-3-5*~--0-5-3-----0-0-0-4-5-|
           . .         .        . . .      . .          .         . . .

e|--------------------------------------------------------------------------|
B|--------------------------------------------------------------------------|
G|--------------------------------------------------------------------------|
D|-2-2-2-2-2-2-2-2-2-2-2-----------2-2-2-2-2-2-2-2-2-2-2-\6-----------------|
A|-2-2-2-2-2-2-2-2-2-2-2-----------2-2-2-2-2-2-2-2-2-2-2-\6-----------------|
E|-0-0-0-0-0-0-0-0-0-0-0-6*--5*-3*-0-0-0-0-0-0-0-0-0-0-0-\6-----------------|
     . .   . . .   . . .             . .   . . .   . . .                   
                         
                     Played under solo
e|--------------------------------------------------------------------------|
B|--------------------------------------------------------------------------|
G|--------------------------------------------------------------------------|
D|-2-2-2-2-2-2-2-2-2-2-2-2-2-2-2-2-2-2-2-2-2-2-2-2-2-2-2-2-5-5-5-5----------|
A|-2-2-2-2-2-2-2-2-2-2-2-2-2-2-2-2-2-2-2-2-2-2-2-2-2-2-2-2-5-5-5-5----------|
E|-0-0-0-0-0-0-0-0-0-0-0-0-0-0-0-0-2-2-2-2-2-2-2-2-2-2-2-2-5-5-5-5----------|
     . .   . .   . .   . .   .   .   . .   . .   . .   . .   .   .          

Zakk Wylde is God \m/>_<\m/
| /  slide up
| \  slide down
| h  hammer-on
| p  pull-off
| ~  vibrato
| *   Pinch Harmonic
| .  Palm Mute
=============================================================================
Tap to rate this tab
 
# A B C D E F G H I J K L M N O P Q R S T U V W X Y Z