Song name
# A B C D E F G H I J K L M N O P Q R S T U V W X Y Z

Black Label Society - Takillya tab

Ok, this song is from hangover music Vol.VI. Its played on a nylon string acoustic
guitar tuned down hald a step (Eb Ab Db Gb Bb Eb)

|--5-7-5-8-5-7-5-----------------------------------------------------|
|----------------7-5-6-5-8-5-6-5-------------------------------------|
|--------------------------------5-4-5-4-7-4-5-4-4-4-----------4-5-4-|
|----------------------------------------------------7-5-3-5-7-------|
|--------------------------------------------------------------------|
|--------------------------------------------------------------------|

|-------------------------------------------------------------------|
|-------------------------------------------------------------------|
|-5-7-5-4-----------------------------------------------------------|
|---------7-5-3-7-5-3-5-3-2-5-3-2-----------2-3-5-2-3-5-5-3-2-------|
|---------------------------------5-3-2-3-5-------------------2-5-3-|
|-------------------------------------------------------------------|

|---------------------0-------------0-|
|---------------0--1-----1----------0-|
|------------2-------------------5----|
|---------------------------2/7-------|
|-2-0---(0)---------------------------|
|-------------------------------------|

There you go. questions, comments, ect email me at alexhaeni@cogeco.ca, and PLEASE remember to rate this
Tap to rate this tab
 
# A B C D E F G H I J K L M N O P Q R S T U V W X Y Z