Guitaretab - guitar tabs
Song name
# A B C D E F G H I J K L M N O P Q R S T U V W X Y Z

Black Label Society - In This River tab

This is right, i have wrked on it, it is the electric guitar.

There is a lot of vibrato in this song!

First Part

e------------------------------------------------------------------------|
B5~~~~~~~-----------------------15~~~~~~~~~~----------------------------|
G------------------------------------------------------------------------│
D------------------------------------------------------------------------|
A------------------------------------------------------------------------|
E------------------------------------------------------------------------|




Intro/Verse 1

e------------------------------------------------------------------------|
B---12--13--12--10--12--13--12--1010~~~~~~~~~~~~~--------17~~~~~~~~~~~~~|
G------------------------------------------------------------------------│
D------------------------------------------------------------------------|
A------------------------------------------------------------------------|
E------------------------------------------------------------------------|


Verse 2


e------------------------------------------------------------------------|
B---12--13--12--10--12--13--12--1012~~~~~~~~~~~~~----17/16~~~~~~~~~~~~~-|
G------------------------------------------------------------------------|
D------------------------------------------------------------------------|
A------------------------------------------------------------------------|
E------------------------------------------------------------------------|


Chorus (only the second chorus)



e------------------------------------------------------------------------|
B15~~~~~~~~~~~~~--------------------------------------------------------|
G--------------------------7-5-4~~~~~~~~~~~~~----------------------------|
D------------------------------------------------------------------------|
A------------------------------------------------------------------------|
E------------------------------------------------------------------------|


e---------12~~~~~~~~~~~~~------------------------------------------------|
B--12-------------------------------------------------------------------|
G----------------------------------7-5-4~~~~~~~~~~------7-5-4~~~~~~~~~---|
D------------------------------------------------------------------------|
A------------------------------------------------------------------------|
E------------------------------------------------------------------------|



Solo

e------------------------------------------------------------------------|
B------------------------------------------------------------------------|
G---2b3r2b3r2-0---4-------5-------4-----2------4-----5-----4------2b4--2\|
D------------------------------------------------------------------------|
A------------------------------------------------------------------------|
E------------------------------------------------------------------------|
[ Tab from: http://www.guitaretab.com/b/black-label-society/63652.html ]
This Is Where The Fast Shit Starts     With Wah
          ~~~~
e----------------1512------151217121512-----1512------141215121415-------|
B---15b17-------------1512-------------1512------1512---------------1512-|
G------------------------------------------------------------------------|
D------------------------------------------------------------------------|
A------------------------------------------------------------------------|
E------------------------------------------------------------------------| 
                                     ~~~~
e--1412------141215121412121212-----------12--------------12-------------|
B-------1512--------------------15b17--------1512----1215----------------|
G-------------------------------------------------14---------------------|
D------------------------------------------------------------------------|
A------------------------------------------------------------------------|
E------------------------------------------------------------------------|
              ~~~~           ~~~~             ~~~~               ~~~~
e------------------------------------------------------------------------|
B---12------------------------------15--15b17------16--------------------|
G-------14b16-------12-14b16-----------------------15b16------15---------|
D------------------------------------------------------------------------|
A------------------------------------------------------------------------|
E------------------------------------------------------------------------|




Last Chorus



e------------------------------------------------------------------------|
B10~~~~~~-----15~~~~~~~~~~~~~~~~---17~~~~~~~~~~----------15~~~~~~~~~~~~-|
G------------------------------------------------------------------------|
D------------------------------------------------------------------------|
A------------------------------------------------------------------------|
E------------------------------------------------------------------------|



e------15~~~~~~~~~~~~~~--------------------------------------------------|
B----------------------------15~~~~~~~~----17~~~~~~~~~~~~~---15~~~~~~~~~~|
G--5-4-------------------------------------------------------------------|
D------------------------------------------------------------------------|
A------------------------------------------------------------------------|
E------------------------------------------------------------------------|


e------------------------------------------------------------------------|
B---------/12~~~~~~~~~~--------------------------------------------------|
G------------------------------------------------------------------------|
D------------------------------------------------------------------------|
A------------------------------------------------------------------------|
E------------------------------------------------------------------------|



b= bend
~= vibrato
/= slide down
\= slide up
r= bend release
Related for In This River tab