Song name
# A B C D E F G H I J K L M N O P Q R S T U V W X Y Z

Black Label Society - In This River Acoustic tab

intro

|-----3--------------------------------------------------------|
|-----3-----------3--------3-----------3-----------------------|
|---0-------------0--------0-----------0-----------------------|
|-2-------------2--------------------4-------------------------|
|------------3----------2---------5----------------------------|
|--------------------3-----------------------------------------|


Verse

|-----------------------3----------------3---------------------|
|---0-------------------3----------------3-------3-------------|
|---0-------------------0----------------0-------0-------------|
|---2-------------------2----------------0-------4-------------|
|---2-------------------3----------------2-------5-------------|
|---0------------------------------------3---------------------|
   I've been around this world  yet I  see  no end
   

Chorus

|---3---------------------0----------------|
|---3---------------------1----------------|
|---0---------------------0----------------|
|---0---------------------2----------------|
|---2---------------------3----------------|
|---3--------------------------------------|
  in this river all shall fade to black..  
  in this river ain't no  coming back
  

last phrase

|---3---------------------0----------------|--------------------|
|---3---------------------1----------------|-1--------1---------|
|---0---------------------0----------------|-0--------0---------|
|---0---------------------2----------------|-2--------2---------|
|---2---------------------3----------------|-0--------3---------|
|---3--------------------------------------|--------------------|
  in this river all shall fade to black...   fade to   black




Tap to rate this tab
# A B C D E F G H I J K L M N O P Q R S T U V W X Y Z