Guitaretab - guitar tabs
Song name
# A B C D E F G H I J K L M N O P Q R S T U V W X Y Z

Black Label Society - Life Birth Blood Doom tab

Artist: Black Label Society
Album: 1919 Eternal
Title: Life, Birth, Blood, Doom

tuning- C G C F A D


 Riff A
D-------------------------------------------------------------------------------|
A-------------------------------------------------------------------------------|
F-------------------------------------------------------------------------------|
C-------------------------------------------------------------------------------|
G----0-----------0-----------0-----------0-----------0-----------0-----------0--|
C--0-0---------0-0---------0-0---------0-0---------0-0---------0-0---------0-0--|
   pm.         . .         . .         . .         . .         . .         . .
(pitch shifter used for the Riff A, thats what makes that low 'crack crack' sound)


 Riff B (played over riff a)
D----------------------------------------------------------------|
A----------------------------------------------------------------|
F----0---------------0------2-2------0-------------0------2-2----|
C--0---------------0---------------0-------------0---------------|
G-------3---------------3---------------3-------------3----------|
C----------5^-3----------------------------5^-3------------------|

 Lead
D-----------------------------------------------------------||-----------|
A-----------------------------------------------------------||-----------|
F-----------------------------------------------------------||-----------|
C---10h12p10~~--9h10p9~~---9-10-9---------------------------||-----------|
G----------------------------------1012-12~~--11~-10~-8~---||--5~~~~-----|
C-----------------------------------------------------------||-----------|


 Riff C-Chorus                   2nd time                 4th time
D------------------------|------------------------|----------------|
A------------------------|------------------------|----------------|
F------------------------|------------------------|----------------|
C--0--5------------------|--0--5------------------|--0--5---10-9---|
G--0--5--5/3-3--3-6-5-3--|--0--5--5/3-3--0-0-0-0--|--0--5---8--7---|
C--0--5--5/3-3--3-6-5-3--|--0--5--5/3-3--0-0-0-0--|--0--5---8--7---|
                pm.....                  .......

 Riff D
D--------------------------------------------------------------------------------|
A--------------------------------------------------------------------------------|
F--------------------------------------------------------------------------------|
C--------------------------------------------------------------------------------|
G--5~~~~~-------------5~~~~~-------------5~~~~~-------------5~~~~~---------------|
C-----------6~~~~~~------------6~~~~~~------------6~~~~~~------------6~~~~~~-----|

solo:
by: David Reeves, AKA DaveUK.  dngsfunhouse@hotmail.com

pick these notes very fast

-10-15-10-15-10-----10--------------------------------------------------------|
---------------------13-----13-10-13-10------10-------------------------------|
---------------------------------------------13-------13-10-13-10------10-13--|
------------------------------------------------------------------------12----|
------------------------------------------------------------------------------|
------------------------------------------------------------------------------|


-----------------------------------------------10-------10-15-10-15-10---------|
-------------------10-------10-13-10-13--------13------------------------13----|
-10-13-10-13-------13----------------------------------------------------------|
-------------------------------------------------------------------------------|
-------------------------------------------------------------------------------|
-------------------------------------------------------------------------------|


-10---------------------------------------------------------------------------------|
------13-10-13-10--------10---------------------------------------------------------|
------------------------13-------13-10-13-10---------13-^^^^^^^^^^^^^---------------|
----------------------------------------------------12------------------------------|
------------------------------------------------------------------------------------|
------------------------------------------------------------------------------------|

then repeat this whole pattern but instead of  finishing the lick on the G
string 13th fret,  finish on the B string 15th fret!

THEN;

10-13-12-10-------10------------------------------------------------------|
----------------13-------13-11-10-13-11-10--------10-----------12^--------|
--------------------------------------------------12--------12-10-9-12^---|
--------------------------------------------------------------------------|
--------------------------------------------------------------------------|
--------------------------------------------------------------------------|


------------------13-12-10-------10-----------------------------------------|
-12^-12^-10----------------13-------13-11-10-13-11-10------10---------------|
-12^-12^-10--------------------------------------------------12-------12-10-|
----------------------------------------------------------------------------|
----------------------------------------------------------------------------|
----------------------------------------------------------------------------|
[ Tab from: http://www.guitaretab.com/b/black-label-society/72962.html ]
----------------------------------------------8------------------------------|
----------------------------------8-10-11------11-10-8-----------------------|
-9---------------------7-9-10------------------------------10-9-7^^^^^-------|
---------------5-7-8---------------------------------------------------------|
------5-7-8------------------------------------------------------------------|
-----------------------------------------------------------------------------|


------------------------------------------------------------------------------|
---------------------------------------------------------------10-12-13-12-10-|
-slide> 12-12-10-9-9-10>slide-5-7->slide-10-12-13-----------------------------|
------------------------------------------------------------------------------|
------------------------------------------------------------------------------|
------------------------------------------------------------------------------|

-------------------------------------------------------------------------|
---------------------------10-12-13-12-10--------------------------------|
13-7>slide-10-12-13------------------------13-7>slide-12-10-9-9-10-5-7---|
-------------------------------------------------------------------------|
-------------------------------------------------------------------------|
-------------------------------------------------------------------------|

Fast trills, then scrape down the strings to lead into speed picked part

--------------------------------------------------------------------|
->slide-13-10-13-10-9-12-9-12-9-8-11-8-11-8-------------------------|
--------------------------------------------------------------------|
--------------------------------------------------------------------|
--------------------------------------------------------------------|
--------------------------------------------------------------------|

-----------------------------------------------------------------------------|
-----------------------------------------------------------------------------|
-----------------------------------------------------------------------------|
----------------------------------------------8-10-12-8-10-12----------------|
-----------------------8-10-12-8-10-12--------------------------8-10-12-8----|
-8-10-12-8-10-12-------------------------------------------------------------|

----------------------------------------------------------------------------|
----------------------------------------------------------------------------|
----------------------------------------------------------------------------|
-----------------------------------------------------8-10-12-8-10-12--------|
-10-12-----------------------8-10-12-8-10-12--------------------------------|
----------8-10-12-8-10-12----------------------------------------------8----|>>

---------------------------------------------------------------------------|
---------------------------------------------------------------------------|
---------------------------------------9-10-12-9-10-12---------------------|
--------------------7-8-10-7-8-10------------------------7-8-10-7-8-10-----|
-7-8-10-7-8-10-------------------------------------------------------------|
---------------------------------------------------------------------------|

------------------------------------------------------------------------------|
------------------------------------------------------------------------------|
--------------------------------------9-10-12-9-10-12-------------------------|
--------------------7-8-10-7-8-10---------------------------------------------|
-7-8-10-7-8-10-------------------------------------------8--------------------|>>>>>>>>>>>
------------------------------------------------------------------------------|

--------------------------------------------------------------------------------|
--------------------------------------------------------------------------------|
---------------------------------------------10-12-14-10-12-14------------------|
-----------------------8-10-12-8-10-12----------------------------8-10-12-8-----|
--8-10-12-8-10-12---------------------------------------------------------------|
--------------------------------------------------------------------------------|

---------------------------------------------------------------------------------|
---------------------------------------------------------------------------------|
-------------------------------------------------------10-12-14-10-12-14^^-------|
-10-12-------------------------8-10-12-8-10-12-----------------------------------|
-----------8-10-12-8-10-12-------------------------------------------------------|
---------------------------------------------------------------------------------|


-----------------------------------------------------------------------------|
-----------------------------------------------------------------------------|
-------------------------------------------------------------------------10--|
------------------------------------------10---------10 12-10-12--------12--|
--------------10--------10-12-10-12-------12---------------------------------|
-15-12-15-------15-----------------------------------------------------------|


------------------------------------------------------------------------|
------------------10---------10-13-10-13-15^^^^^^^^^^^^^^^^^^^^^^-------|
-10-12-10-12--------12--------------------------------------------------|
------------------------------------------------------------------------|
------------------------------------------------------------------------|
------------------------------------------------------------------------|
Related for Life Birth Blood Doom tab