Guitaretab - guitar tabs
Song name
# A B C D E F G H I J K L M N O P Q R S T U V W X Y Z

Black Label Society - Stillborn Acoustic tab

|---5-------5---------5-----4--------4--------4------2---------|
|-----2--------2---------------2--------2---------------2------|
|--------2--------2---------------2--------2---------------2---|
|-4----------------------4------------------------4------------|
|--------------------------------------------------------------|
|-2----------------------2------------------------2------------|



|-2--------2-------2----------------|
|----2----------------2-------------|
|-------2----------------2----------|
|--------------4--------------------|
|-------------------------------0---|
|--------------2------------2-4---0-|

1st Bridge (you can figure out the strumming pattern)

|-0----0--|
|-0----0--|
|-1----2--|
|-2----2--|
|-2----2--|
|-0----0--|

-The feelings I once felt are now dead and gone-

Repeat the verse section and Bridge then Chorus
[ Tab from: http://www.guitaretab.com/b/black-label-society/75826.html ]
|-2---2---0-------|
|-2---3---0-------|
|-2---2---1-------|   3 more times (just strum in time)
|-4---0---2-------|
|-4---0---2-------|
|-2-------0-------|

-for so very long----------------------I waited here for you for you. . .

|--------------------------------------------------------------|
|-------5--------5--------5------5-------5-------5-----5-------|
|----------2--------2---------------4-------4------------4-----|
|----4--------4--------4------6--------6-------6-----7-----7---|
|--------------------------------------------------------------|
|--------------------------------------------------------------|

-oh----ohh----------------------(vocalising)

|-------------------------------|
|-5------5----5------5-----5----|
|---4-----------4------4--------| 3 more times (w/vocalising)
|------7----6------6-----6------|
|-------------------------------|
|-------------------------------|

(SOLO)

|-0--0-0-0-0-0--|
|-0--0-0-0-0-0--|
|-4--4-4-4-4-4--|  Back to verse (2 bars-8 beats worth grasshopper-)
|-4--4-4-4-4-4--|
|-2--3-2-3-2-0--|
|---------------|

(CHORUS)

(INTRO/VERSE) (4 bars worth) END--------------------------------
Related for Stillborn Acoustic tab
Advertisement will be closed in 10 seconds