Song name
# A B C D E F G H I J K L M N O P Q R S T U V W X Y Z

Black Label Society - Superterrorizer tab

Artist: Black Label Society
Album: Alcohol Fueled Brewtality Live
Title: Superterrorizer
From: www.BlackLabelSociety.net

Tabbed By: Fender-Bender (Michael Trasso)

Tuning: Drop D (DADGBE)


 ^  =  ph

Intro:

|---------------------------------------------------------------------|
|---------------------------------------------------------------------|
|---------------------------------------------------------------------|REP 3X
|-----------------------------------6-----5------2/3---3-2---6/7-6/7--|
|-3-4-5^-------------3--------------6-0-0-5-0-0--2/3-0-3-2-0-6/7-6/7--|
|--------3-4-5-5-6-7---6-5-3^-3^----6-0-0-5-0-0--2/3-0-3-2-0-6/7-6/7--|


|------------------------------------------------|
|------------------------------------------------|
|------------------------------------------------|
|----------------------------------6-----5-----3-|
|--3-4-5^-------------3------------6-0-0-5-0-0-3-|
|---------3-4-5-5-6-7---6-5-3^-3^--6-0-0-5-0-0-3-|

           
|---------------------------------------------------------------------------|
|---------------------------------------------------------------------------|
|---------------------------------------------------------------------------|
|---------------------------------------------------------------------------|
|----------------------0-0-0-0-1-0--0-0-0-0-1-0--0-0------------------------|
|----------------------0-0-0-0-1-0--0-0-0-0-1-0--0-0--10h12h10--------------|
(LIMP BIZKIT SUCKS D**K) (0:29)

                              RAKE               RAKE
|--------------------------------x----------------x---------------|
|----------------------------------x----------------x-------------|
|------------------------------------x----------------x-----------|
|--------------------------------------x----------------x---------|
|-0-0-0-0-1-0---0-0-0-0-1-0---0-0--------x----0-0---------x-------|
|-0-0-0-0-1-0---0-0-0-0-1-0---0-0----------x--0-0-----------x-----|

|------------------------------------------------------|
|------------------------------------------------------|
|------------------------------------------------------|
|------------------------------------------------------|
|-0-0-0-0-1-0---0-0-0-0-1-0----0-0---------------------|
|-0-0-0-0-1-0---0-0-0-0-1-0----0-0----10h12h10---------|

                              
                              RAKE               RAKE
|--------------------------------x----------------x---------------|
|----------------------------------x----------------x-------------|
|------------------------------------x----------------x-----------|
|--------------------------------------x----------------x---------|
|-0-0-0-0-1-0---0-0-0-0-1-0---0-0--------x----0-0---------x-------|
|-0-0-0-0-1-0---0-0-0-0-1-0---0-0----------x--0-0-----------x-----|

 verse 
|--------------------------------------------------------------|
|--------------------------------------------------------------|
|--------------------------------------------------------------|
|--------------------------------------------------------------| 
|-----------------0h6-5--0-0-0-0-1-0---0-0-0-0-1-0--0-0--2h4h2-| REP 4X
|-12^--11^--10^---0h6-5--0-0-0-0-1-0---0-0-0-0-1-0--0-0--------|
( Im your suicidal...)(0:46)

                              RAKE               RAKE
|--------------------------------x----------------x---------------|
|----------------------------------x----------------x-------------|
|------------------------------------x----------------x-----------|
|--------------------------------------x----------------x---------|
|-0-0-0-0-1-0---0-0-0-0-1-0---0-0--------x----0-0---------x-------|
|-0-0-0-0-1-0---0-0-0-0-1-0---0-0----------x--0-0-----------x-----|

|---------------------------------------------------------------------|
|---------------------------------------------------------------------|
|---------------------------------------------------------------------|
|-----------------------------------6-----5------2/3---3-2---6/7-6/7--|
|-3-4-5^-------------3--------------6-0-0-5-0-0--2/3-0-3-2-0-6/7-6/7--|
|--------3-4-5-5-6-7---6-5-3^-3^----6-0-0-5-0-0--2/3-0-3-2-0-6/7-6/7--|
( YEAH YEAH YEAH O MOTHER F****R YEAH)(1:21)

|---------------------------------------------------------------------|
|---------------------------------------------------------------------|
|---------------------------------------------------------------------|
|-----------------------------------6-----5------2/3---3-2---6/7-6/7--|
|-3-4-5^-------------3--------------6-0-0-5-0-0--2/3-0-3-2-0-6/7-6/7--|
|--------3-4-5-5-6-7---6-5-3^-3^----6-0-0-5-0-0--2/3-0-3-2-0-6/7-6/7--|
  (IIIIZEEEEEEEEEEEERRRRRRR)
|---------------------------------------------------------------------|
|---------------------------------------------------------------------|
|---------------------------------------------------------------------|
|-----------------------------------6-----5------2/3---3-2---6/7-6/7--|
|-3-4-5^-------------3--------------6-0-0-5-0-0--2/3-0-3-2-0-6/7-6/7--|
|--------3-4-5-5-6-7---6-5-3^-3^----6-0-0-5-0-0--2/3-0-3-2-0-6/7-6/7--|
( I SAID YEAH YEAH OOOOOOO MOTHER F****R YEAH) (1:36)

|------------------------------------------------|
|------------------------------------------------|
|------------------------------------------------|
|----------------------------------6-----5-----3-|
|--3-4-5^-------------3------------6-0-0-5-0-0-3-|
|---------3-4-5-5-6-7---6-5-3^-3^--6-0-0-5-0-0-3-|
 (IIIIZEEEEEEEEEEEERRRRRRR)

|---------------------------------------------------------------------------|
|---------------------------------------------------------------------------|
|---------------------------------------------------------------------------|
|---------------------------------------------------------------------------|
|----------------------0-0-0-0-1-0--0-0-0-0-1-0--0-0------------------------|
|----------------------0-0-0-0-1-0--0-0-0-0-1-0--0-0--10h12h10--------------|
(DRINK ME UP!!) (1:50)

                              RAKE               RAKE
|--------------------------------x----------------x---------------|
|----------------------------------x----------------x-------------|
|------------------------------------x----------------x-----------|
|--------------------------------------x----------------x---------|
|-0-0-0-0-1-0---0-0-0-0-1-0---0-0--------x----0-0---------x-------|
|-0-0-0-0-1-0---0-0-0-0-1-0---0-0----------x--0-0-----------x-----|

|------------------------------------------------------|
|------------------------------------------------------|
|------------------------------------------------------|
|------------------------------------------------------|
|-0-0-0-0-1-0---0-0-0-0-1-0----0-0---------------------|
|-0-0-0-0-1-0---0-0-0-0-1-0----0-0----10h12h10---------|

                              
                              RAKE               RAKE
|--------------------------------x----------------x---------------|
|----------------------------------x----------------x-------------|
|------------------------------------x----------------x-----------|
|--------------------------------------x----------------x---------|
|-0-0-0-0-1-0---0-0-0-0-1-0---0-0--------x----0-0---------x-------|
|-0-0-0-0-1-0---0-0-0-0-1-0---0-0----------x--0-0-----------x-----|

 verse 
|--------------------------------------------------------------|
|--------------------------------------------------------------|
|--------------------------------------------------------------|
|--------------------------------------------------------------| 
|-----------------0h6-5--0-0-0-0-1-0---0-0-0-0-1-0--0-0--2h4h2-| REP 4X
|-12^--11^--10^---0h6-5--0-0-0-0-1-0---0-0-0-0-1-0--0-0--------|
(Crashing, Burning...)(2:07)

                              RAKE               RAKE
|--------------------------------x----------------x---------------|
|----------------------------------x----------------x-------------|
|------------------------------------x----------------x-----------|
|--------------------------------------x----------------x---------|
|-0-0-0-0-1-0---0-0-0-0-1-0---0-0--------x----0-0---------x-------|
|-0-0-0-0-1-0---0-0-0-0-1-0---0-0----------x--0-0-----------x-----|

|---------------------------------------------------------------------|
|---------------------------------------------------------------------|
|---------------------------------------------------------------------|
|-----------------------------------6-----5------2/3---3-2---6/7-6/7--|
|-3-4-5^-------------3--------------6-0-0-5-0-0--2/3-0-3-2-0-6/7-6/7--|
|--------3-4-5-5-6-7---6-5-3^-3^----6-0-0-5-0-0--2/3-0-3-2-0-6/7-6/7--|
( YEAH YEAH YEAH O HELL YEAH)(2:42)

|---------------------------------------------------------------------|
|---------------------------------------------------------------------|
|---------------------------------------------------------------------|
|-----------------------------------6-----5------2/3---3-2---6/7-6/7--|
|-3-4-5^-------------3--------------6-0-0-5-0-0--2/3-0-3-2-0-6/7-6/7--|
|--------3-4-5-5-6-7---6-5-3^-3^----6-0-0-5-0-0--2/3-0-3-2-0-6/7-6/7--|
  (IIIIZEEEEEEEEEEEERRRRRRR)

|---------------------------------------------------------------------|
|---------------------------------------------------------------------|
|---------------------------------------------------------------------|
|-----------------------------------6-----5------2/3---3-2---6/7-6/7--|
|-3-4-5^-------------3--------------6-0-0-5-0-0--2/3-0-3-2-0-6/7-6/7--|
|--------3-4-5-5-6-7---6-5-3^-3^----6-0-0-5-0-0--2/3-0-3-2-0-6/7-6/7--|
(SAY YEAH YEAH O MOTHER F****R YEAH)(2:58)

|------------------------------------------------|
|------------------------------------------------|
|------------------------------------------------|
|----------------------------------6-----5-----3-|
|--3-4-5^-------------3------------6-0-0-5-0-0-3-|
|---------3-4-5-5-6-7---6-5-3^-3^--6-0-0-5-0-0-3-|
   (IIIIZEEEEEEEEEEEERRRRRRR)

SOLO:---------------------------------------------
(3:11)

|---------------------------------------------------------------------|
|---------------------------------------------------------------------|
|---------------------------------------------------------------------|
|-----------------------------------6-----5------2/3---3-2---6/7-6/7--|
|-3-4-5^-------------3--------------6-0-0-5-0-0--2/3-0-3-2-0-6/7-6/7--|
|--------3-4-5-5-6-7---6-5-3^-3^----6-0-0-5-0-0--2/3-0-3-2-0-6/7-6/7--|
(YEAH YEAH O HELL YEAH)(4:29)

|---------------------------------------------------------------------|
|---------------------------------------------------------------------|
|---------------------------------------------------------------------|
|-----------------------------------6-----5------2/3---3-2---6/7-6/7--|
|-3-4-5^-------------3--------------6-0-0-5-0-0--2/3-0-3-2-0-6/7-6/7--|
|--------3-4-5-5-6-7---6-5-3^-3^----6-0-0-5-0-0--2/3-0-3-2-0-6/7-6/7--|
  (IIIIZEEEEEEEEEEEERRRRRRR)

|---------------------------------------------------------------------|
|---------------------------------------------------------------------|
|---------------------------------------------------------------------|
|-----------------------------------6-----5------2/3---3-2---6/7-6/7--|
|-3-4-5^-------------3--------------6-0-0-5-0-0--2/3-0-3-2-0-6/7-6/7--|
|--------3-4-5-5-6-7---6-5-3^-3^----6-0-0-5-0-0--2/3-0-3-2-0-6/7-6/7--|
(SAY YEAH YEAH O MOTHER F****R YEAH)(4:44)

|-------------------------------------------------------|
|-------------------------------------------------------|
|-------------------------------------------------------|
|-----------------------------------6-----5-----3-------| REP 3X
|-3-4-5^-------------3--------------6-0-0-5-0-0-3-0-0-0-|
|--------3-4-5-5-6-7---6-5-3^-3^----6-0-0-5-0-0-3-0-0-0-|
  (IIIIZEEEEEEEEEEEERRRRRRR) (YEAH!)



|-----------------|
|-----------------|
|-----------------|
|-----------------|
|--6-0-0-5--0-0-3-|
|--6-0-0-5--0-0-3-|
Tap to rate this tab
# A B C D E F G H I J K L M N O P Q R S T U V W X Y Z