Song name
# A B C D E F G H I J K L M N O P Q R S T U V W X Y Z

Black Label Society - Destruction Overdrive tab

Destruction Overdrive is another one of Black Labels best. Please rate and comment to 
me if it needs improving. thanks


Tuning: Eb Ab Db Gb Bb eb

Intro:
|--------------------------------------------------------------|
|--------------------------------------------------------------|
|--7nh-----7nh-------------------------------------------------|
|------7\------7\----------------------------------------------|
|--------------------------------------------------------------|
|--------------------------------------------------------------|
nh=Natural Harmonic

                                     1st ending
|----------------------------------|----------------------------|
|----------------------------------|----------------------------|
|----------------------------------|----------------------------|
|----------------------------------|----------------------------|
|----------------------------------|----------------------------|
|--0-2-0-2ph---0-2-0-2ph---0-2-0-2-|-0-2-0-2ph---00-------------|


  1st ending (cont)          2nd ending
|--------------------|------------------------------------------|
|--------------------|------------------------------------------|
|--------------------|------------------------------------------|
|--------------------|--4--4--4--4---2--------------------------|
|--/9-7---7----------|--2--2--2--2---0--------------------------|
|-------9--9-8-7--5--|------------------------------------------|
                        Bend each one


|-----------------------------------------------------------------------|
|-----------------------------------------------------------------------|
|---------------------------------------------------------------------0-|
|------------------------------------------4----2------------0~~~~----0-|
|--0-0-0-0--0-0-0-0--0-0-0-0--0-0-0-0----------------3---2---2h3p2------|
|--2-2-2-2--2-2-2-2--2-2-2-2--2-2-2-2----2----2----0---0---0--------5---|


Solo by Mr. Git
E----------------------------------------------4-5-4H5P4---4---------------|
B-2H5P2----2H5P2----2H5P2----2H5P2----2H5P2--------------7---7-5-4---4-----|
G-------4~-------4~-------4~-------4~-------4~---------------------7---7-5-|
D--------------------------------------------------------------------------|
A--------------------------------------------------------------------------|
E--------------------------------------------------------------------------|

E----------------------------------------------------------------------|
B----------------------------------------------------------------------|
G---4-4-4P2---4-4P2---2----------------------------------14-14---------|
D-7---------4-------4---4--------------------------14-16-------16-14---|
A--------------------------------------12-14-14-14---------------------|
E--------------------------12-14-14-14---------------------------------|
                           PM------------------------------------------|

E------------------------ -----14-------repeat this lick   ----------|
B----14----13----12------ -17B----17P14-                   --17~~----|
G-14----14----14-----14-- --------------then finish on---- ----------|
D------------------------ --------------                   ----------|
A------------------------ --------------                   ----------|
E------------------------ --------------                   ----------|

BLS S.D.M.F.
Tap to rate this tab
# A B C D E F G H I J K L M N O P Q R S T U V W X Y Z