Song name
# A B C D E F G H I J K L M N O P Q R S T U V W X Y Z

Black Label Society - Black Mass Reverends tab

          Tabbed by Violent J


KEY:---------------------------------------------------------
| 
| h = hammer on
| p = pull off
| b = bend (XbY ---- bend X to Y note)
| ~ = vibrato
| PH = Pinch/Artificial Harmonic
| / = slide up (X/Y ---- slide note X to note Y)
| \ = slide down (X\Y ---- slide note X to note Y)
|
|------------------------------------------------------------


            ZAKK WYLDE'S BLACK LABEL SOCIETY
                     SHOT TO HELL
                  BLACK MASS REVERENDS

                   Standard D Tuning

Intro
d|---------------------------------------|
A|---------------------------------------|
F|---------------------------------------|      Repeat
C|-------------------------------7-5-----|        4X
G|-5h7-7-7-7-5h7-7-7-7-5h7-7-7-7-----7-5-|
D|---------------------------------------|



Verse Riff
d|----------------------------------|
A|----------------------------------|
F|----------------------------------|
C|-------------------------------~--|
G|------------------5~--------5b7~~-|
D|-0000000000000000----6-5-3-----~--|
                    PH         PH

Chorus
d|--------------------------|-------------|
A|--------------------------|-------------|
F|-7-7-7-7-7----------------|-------------|
C|-7-7-7-7-7--7-7-7---------|-------------|
G|-5-5-5-5-5--7-7-7---------|-7-6-5-------|
D|------------5-5-5-5~-5-3~-|-------6~5~3-|
  "Black Mass Reverends"


Hook
d|---------------------|    |-------------------------|    
A|---------------------|    |-------------------------|    
F|---------------------| 2X |-------------------------| 1X  
C|---------------------|    |-------------------------|    
G|---------------------|    |-------------------------|    
D|-0-7~-0-6~-0-5~-0-3~-|    |-0-7~~-0-6~~-0-5~~-0-3~~-|    
                                PH    PH    PH    PH

 |-----------|
 |-----------|
 |-----------| Into Solo
 |-7-9-9-9-9-| 
 |-7-9-9-9-9-|
 |-5/7-7-7-7-|


   Sorry I don't have the solo, I'm planning on tabbing it later.
   PM me if there any big mistakes, but I'm pretty sure this is 99% correct. 
      If it's not perfect, you've got an idea of how it goes.

 

VIOLENT J
Tap to rate this tab
# A B C D E F G H I J K L M N O P Q R S T U V W X Y Z