Song name
# A B C D E F G H I J K L M N O P Q R S T U V W X Y Z

Black Label Society - Dr Octavia tab

artist: Black Label Society
song: dr octavia
tuning: D,G,C,F,A,D


W/Octave pedal:

E--------------------------------------------------------------|
B--------------------------------------------------------------|
G--------------------------------------------------------------|
D-----14b--(16)------14-12---------------------------- Repeat--| X2
A--12----------------------14-12-------------------------------|
E--------------------------------0-0---------------------------|


E------------------------------------------------------------------------|
B------------------------------------------------------------------------|
G----------12-14~~---------12-14~~-----------12-14~~------------12--14---|
D----12-14-----------12-14-------------12-14------------12--14-----------|
A------------------------------------------------------------------------|
E-0----------------------------------------------------------------------|

E--------------------------------------------------------12-17-15-12-----|
B--------------------------------------12-15-------12-15-------------15--|
G--------12-14-------12-14-------12-15-------12-14-----------------------|
D--12-14-------12-14-------12-14-----------------------------------------|
A------------------------------------------------------------------------|
E------------------------------------------------------------------------|

E-------------------------------------------------------------------------|
B-12-------15-12----------------------------------------------------------|
G----14-12-------14-12-------14-12----------------------------------------|
D----------------------14-12-------14-12-------14-12-14--12---------------|
A----------------------------------------14-12--------------14/12-10------|
E--------------------------------------------------------------------12~--|

E-------------------------------------------------------------------------|
B-------------------------------------------------12----------------12----|
G--------16b-------16/15-12-14b-14~~-----12-14-15----15-14-12-14-15----15-|
D-----14------------------------------------------------------------------|
A-------------------------------------------------------------------------|
E-0-----------------------------------------------------------------------|

E-------------------------------------------------------------------------|
B-------------12----------------12----------------12-14-15-15----------15-|
G-14-12-14-15----15-14-12-14-15----15-14-12-14-15-------------15/16-19----|
D-------------------------------------------------------------------------|
A-------------------------------------------------------------------------|
E-------------------------------------------------------------------------|

E----17-15----------------------------------------------------------------|
B-17-------17-15-20-15-17-15-17-19-17-17---15-----------------------------|
G----------------------------------------18---16-19-16-15-19-15-16-15/12--|
D-------------------------------------------------------------------------|
A-------------------------------------------------------------------------|
E-------------------------------------------------------------------------|

E-----------------------------------------------------------------|
B-----------------------------------------------------------------|
G-14-12----------12-----------------------------------------------|
D-------14-12-14----14-12-------14-12-14-12-----------------------|
A-------------------------14-12-------------14-12-10--------------|
E----------------------------------------------------12~~~--0-----|


 YaY finished!!!!!!!!!!!!!!!!
  Good Luck to anyone atempting this song, its fuckin intense :P
  BLEED BLACK LABEL!!!!!!!!!!!!!!!!!!
Tap to rate this tab
 
# A B C D E F G H I J K L M N O P Q R S T U V W X Y Z