Song name
# A B C D E F G H I J K L M N O P Q R S T U V W X Y Z

Black Label Society - Blacked Out World tab

Band: Black Label Society
Song: Blacked Out World
Album: Shot To Hell

Tabbed By: Rod Zombie (rodzombie_89@hotmail.com)

FIRST: I LIKE TO SAY THAT THIS IS MY ORIGINAL VERSION OF THE SONG BECAUSE SOMEONE CALLED 
STEAL IT FROM ME AND SUBMITTED IT WITHOUT PERMISSION. I SENT THE TRANSCRIPTION LAST 
BUT THEY DIDNT SUBMITTED IT. So this is the original tab

This is the first tab of this song.
Its a cool song to play. Sounds good with a nylon guitar.
Im not so good guessing the tune of the song, but thats how i hear it.
I didnt tab the solo for this song becaus im CRAP tabbing solos.
If there`s a mistake, send me an email. I hope you enjoy it.


Tuning: EBGDAE (i think)

Intro/Verse Riffs (Bass arranged for guitar):

|-------------------------------------------------------|
|-------------------------------------------------------|
|------------------------------2p0-----4p2---4p2--------|
|-----4p2----4p2---4p2----------------------------------|
|--------------------------0-0-----0-------2-----2------|
|-2-2-----2------2-----2--------------------------------|
  . .            .         . .             .

|-------------------------------------------------------|
|-------------------------------------------------------|
|------------------------------2p0----------------------|
|-----4p2----4p2---4p2-----------------2p0---2p0---2----|
|--------------------------0-0--------------------------|
|-2-2-----2------2-----2------------0------0-----0------|
  . .            .         . .             .


Slide:
|--------|
|--------|
|--------|
|--------|
|--------|
|-0/15\0-|

Chorus:
|----------------------------------|
|----------------------------------|
|-----------------2-2-2-2-4-4-4----|
|-4-4-4-4-4-4-4-4-2-2-2-2-4-4-4----|
|-4-4-4-4-4-4-4-4-0-0-0-0-2-2-2----|
|-2-2-2-2-2-2-2-2---------------2~-|
 		               P.H

Interlude after chorus:

|---------------|
|-4--3--2-------|
|-4--3--2-------|
|-2--1--0-------|
|------------x\-|

_____________________________________

Order Of The Song:

INTRO/VERSE X 4
INTRO/VERSE X 2
CHORUS x 4
INTERLUDE X 3
INTRO/VERSE (SOLO PART) X 4
INTRO/VERSE X 4
CHORUS X 6
_____________________________________
Tap to rate this tab
# A B C D E F G H I J K L M N O P Q R S T U V W X Y Z