Song name
# A B C D E F G H I J K L M N O P Q R S T U V W X Y Z

Black Label Society - She Deserves A Free Ride tab

Help us improve GuitareTab! Take a short survey!
-------------------------------------------------------------------------------
			     She Deserves a Free Ride - Black Label Society
-------------------------------------------------------------------------------
Tabbed by: Brandon Stanley
Email: slashrockr777@gmail.com

Tuning: Eb (Eb Ab Db Gb Bb Eb)

This is a great song from the best band since Led Zeppelin! Enjoy.


Intro/Verse:

e|--3-----3-----3333-----0-----0-----0000-----0-----0-----0000-----3-----3-----|
B|--3-----3-----3333-----0h1---1-----1111-----1-----1-----1111-----3-----3-----|
G|--0-----0-----0000-----2-----2-----2222-----0-----0-----0000-----0-----0-----|
D|--0-----0-----0000-----2-----2-----2222-----0h2---2-----2222-----0-----0-----|
A|--2-----2-----2222-----0-----0-----0000-----0h3---3-----3333-----2-----2-----|
E|--3-----3-----3333-----------------------------------------------3-----3-----|

e|--3333---------------------------------------------------------------------|
B|--3333---------------------------------------------------------------------|
G|--0000---------------------------------------------------------------------|
D|--0000---------------------------------------------------------------------|
A|--2222---------------------------------------------------------------------|
E|--3333---------------------------------------------------------------------|

Chorus:

Cadd9                     G
She, she deserves a free ride
Cadd9                     G
She, she deserves a free ride
Cadd9                     G       C
She, she deserves a free ride

Song Progression:

Intro x2

Verse 1

Verse 2

Chorus

Intro x1

Verse 3

Chorus

Intro x1

Solo (Play Intro)

Chorus

Intro x2

Chords Used (EADGBe):

Cadd9 = x32033
G = 320033
C = x32010

This is my first tab.  It took me about 10 minutes to figure it out and I noticed that 
song wasn't tabbed anywhere so I decided to tab it out myself.  Hope you guys like it.


============================================================================
| /  slide up
| \  slide down
| h  hammer-on
| p  pull-off
| ~  vibrato
| +  harmonic
| x  Mute note
============================================================================
Related for She Deserves A Free Ride tab