Song name
# A B C D E F G H I J K L M N O P Q R S T U V W X Y Z

Black Label Society - Whats In You tab

#----------------------------------PLEASE NOTE--------------------------------#
#This file is the author's own work and represents their interpretation of the#
#song. You may only use this file for private study, scholarship, or research.#
#-----------------------------------------------------------------------------#



Artist: Zakk Wylde's Black Label Society
Album: Mafia
Title: Whats In You

From: www.BlackLabelSociety.net

Tabbed By: Skull Dragon

Tuning: Drop C - C G C F A D



Intro:                              PH on 4th time
d|------------------------------------|------------------------------|
A|------------------------------------|------------------------------|
F|------------------------------------|------------------------------|
C|------------------------------------|------------------------------|
G|-5\4--0--h3--0--h3--0--h3--0--h3-h3-|--3ph-------------------------|
C|------0------0------0------0--------|------------------------------|



Oh... Whats in you now?
d|--------------------------------------------------------------|
A|--------------------------------------------------------------|
F|--------------------------------------------------------------|
C|--7----5----7----5---------------7----5-----7-6-5-------------|
G|--5----3----5----7----0-0-0-0----5----3-----5-4-3--/12\-------|
C|----------------------0-0-0-0----------------------slide------|



Tap to rate this tab
# A B C D E F G H I J K L M N O P Q R S T U V W X Y Z