Song name
# A B C D E F G H I J K L M N O P Q R S T U V W X Y Z

Black Label Society - Stillborn Live Acoustic tab

Help us improve GuitareTab! Take a short survey!
-------------------------------------------------------------------------------
Stillborn acoustic Live from Planet of the Sound - Black Label Society
-------------------------------------------------------------------------------
Tabbed by:Dustin (gu1tarfun)
Email:gu1tarfun@yahoo.com

Tuning:Standard EADGBe

This is the crazy acoustic version of Stillborn that Zakk played when he came to
at Planet of the Sound Recording Studio. It can be found on WCCC presents planet of 
vol 1
check out the tasty riffs that zakk lays down in this song, it will blow your mind that 
one can do this on an acoustic guitar.
 There are two guitars in this song, guitarI plays the same notes over and over again,
guitarII plays some leads over the song. This is how this song is tabbed out: First is
guitarI parts, then I will tab out just some of the stuff zakk does then tell you how to 
the song your own.

GuitarI(repeat through out the whole song)
e|----5--5-5-5--4--4-4-4--2--2-2--2----|
B|-------------------------------------|
G|-------------------------------------|
D|-------------------------------------|
A|-------------------------------------|
E|--2--2--2-2-2--2--2-2-2--2--2-2---2--|
GuitarII(Just some examples of what Zakk Does)
ex1)
e|-------------------------------------------------------------------------|
B|-------------------------------------------------------------------------|
G|---5p4p2-2--------2-5p4p2-5p4p2-5p4p2-5p4p2-5-5-5-5-5p4p2-2--------------|
D|--------4-4-2-2-4--------4-----4-----4-------------------4-4-2-----------|
A|-------------4-------------------------------------------------4-3-2-----|
E|--------------------------------------------------------------------5-2--|
ex2)
e|----------5----------------------------------------------------------------------|
B|-----5-6/7-----------------------------------------------------------------------|
G|--5/6----------------------------------------------------------------------------|
D|---------------------------------------------------------------------------------|
A|---------------------------------------------------------------------------------|
E|---------------------------------------------------------------------------------|
ex3)really fast, try to tremolo pick it
e|-----------------------------------------------------------------|
B|-----------------------------------------------------------------|
G|-----------------------------------------2h4h5-5p4p2-------------|
D|-----------2--------2--------2--------2-4-----------2p4----------|
A|------2h3h4----2h3h4----2h3h4----2h3h4-----------------4p3p2-----|
E|---2h5------2h5------2h5------2h5---------------------------2p5--|
let your mind and figures make some magic by using the f#blues(on 2nd fret scale, [you
gradually  slide up to the 9th and the 14th fret]
e|----------------------2-5---5-2----------------------------------------------------|
B|-------------------2-5---------5-2-------------------------------------------------|
G|--------------2-4-5---------------5-4-2--------------------------------------------|
D|-----------2-4-------------------------4-2-----------------------------------------|
A|------2-3-4-------------------------------4-3-2------------------------------------|
E|---2-5-----------------------------------------5-2---------------------------------|

Have fun with that, practice the scale slowly and it you will get used to it. This is my
tab I posted on the net so please rate to let me know how I did

| /  slide up
| \  slide down
| h  hammer-on
| p  pull-off
| ~  vibrato
| +  harmonic
| x  Mute note
===============================================================================
Related for Stillborn Live Acoustic tab