Song name
# A B C D E F G H I J K L M N O P Q R S T U V W X Y Z

Black Label Society - Demise Of Sanit tab

Tuning: C G C F A D
Key:ph~=Pinched Harmonic
     v~=Vibrato
     pm=Palm Mute
      *=Staccoto(Short Note)
      ~=Let Ring
      X=Mute Note
HERE WE GO!!
MAIN RIFF/INTRO/VERSE
D|-----------------------------------------------------------|
A|-----------------------------------------------------------|
F|-----------------------------------------------------------|
C|0-0-6-5-3-0-0-0-6-5-3-0-0-6-5-3-0-0-0-0--------------------|
G|0-0-6-5-3-0-0-0-6-5-3-0-0-6-5-3-0-0-0-0-2ph-2ph------------|
C|0-0-6-5-3-0-0-0-6-5-3-0-0-6-5-3-0-0-0-0--------------------|
            * *                   PM-----]
LEAD FILL(DO NOT DO DURING VERSE)
D|-------------------------------|
A|-------------------------------|
F|9b~~~-------5b~~~~~~~~~~~~~----|
C|X-~~~-------X-~~~~~~~~~~~~~----|
G|7b~~~-------3b~~~~~~~~~~~~~----|
C|-------------------------------|
BEND REALESE AND GIVE IT A SHAKE^

PRE CHORUS
D|------------------------------------------------|
A|------------------------------------------------|
F|------------------------------------------------|
C|2~~~~~~~~~~~~~~~~~~~~~~~~2~~~~~~~~~~~~~~~~~~~---|
G|2~~~~~~~~~~~~~~~~~~~~~~~~2~~~~~~~~~~~~~~~~~~~---|
C|2~~~~~~~~~~~~~~~~~~~~~~~~2~~~~~~~~~~~~~~~~~~~2ph|
"WHERE HAVE I GONE, BLACKED OUT ON MY DEATH RIDE"

CHORUS
D|----------------------------------------|
A|----------------------------------------|
F|----------------------------------------|
C|0-0---1-0-0-1-0-0-1-6-3-3-6-3-3-3-3-0-0-|
G|0-0---1-0-0-1-0-0-1-6-3-3-6-3-3-3-3-0-0-|
C|0-0---1-0-0-1-0-0-1-6-3-3-6-3-3-3-3-0-0-|
                    PM--------------------|

THERE YEAH GO!!! SWEET SONG, FUN TO PLAY!!
BLEED BLACK, SDMF MOTHERF*****S

ORDER
MAIN 4X
VERSE 2X
PRE CHORUS 4X
CHORUS 2X
MAIN 2X
VERSE 2X
PRE CHORUS 4X
CHORUS 2X
SOLO BACKING 4X
PRE CHORUS 4X
CHORUS 4X
MAIN 2X
Tap to rate this tab
 
# A B C D E F G H I J K L M N O P Q R S T U V W X Y Z