Song name
# A B C D E F G H I J K L M N O P Q R S T U V W X Y Z

Black Label Society - Faith Is Blind tab

This song is pretty heavy...lead part is a bit hard.
Tabbed By: Garrett
Key: v~= Vibrato
     ph= Pinched Harmonic
     pm= Palm Mute
     tp= Tremolo Picking(Up And Down Strokes)
      h= Hammer On
Main Riff
RHYTHM
D|----------------------------------------|
A|----------------------------------------|
F|----------------------------------------|
C|0-0-0-0-0-0-0-0-0-0-0-0-0---------------|
G|0-0-0-0-0-0-0-0-0-0-0-0-0---------------|
C|0-0-0-0-0-0-0-0-0-0-0-0-0---------------|
PM----------------------------------------| You Get The Idea...

LEAD                                                      2nd Time
D|-------------------------------------------------------|----------|
A|-------------------------------------------------------|----------|
F|-------------------------------------------------------|----------|
C|-------------------------------------------------------|----------|
G|-------------------------------------------------------|----------|
C|0-0-0-10-0-10-0-0-0-0-12-0-12-0-0-0-10-0-10-0-0-0-0-5v~|---3v-----|
PM------------------------------------------------------------------|


Chorus
D|--------------------------------|
A|--------------------------------|
F|--------------------------------|
C|--------------------------------|
G|-----------3p0-0-8-5------------|
C|3p0-0-5p0-0---------7-5-6-5-0---|

Bridge
D|------------------------------|
A|------------------------------|
F|---------------------------0--|
C|2h3-2-2-2-2-2-2-2-2-2-2-2h3---|
G|2h3-2-2-2-2-2-2-2-2-2-2-2h3---|
C|2h3-2-2-2-2-2-2-2-2-2-2-2h3---|
    PM---]TP---]PM-]TP----------|

There You Go...easy song...drop a comment.
Tap to rate this tab
# A B C D E F G H I J K L M N O P Q R S T U V W X Y Z