Song name
# A B C D E F G H I J K L M N O P Q R S T U V W X Y Z

Black Label Society - Graveyard Desciples tab

This is Graveyard Desciples by Black Label Society, please rate and comment to help 
itd be appreciated.


Dropped C tuning: C  G  C  F  A  D


                     **INTRO/VERSES**

|-----|---------------------|--------------------------------|
|-----|---------------------|--------------------------------|
|-----|---------------------|-----------------5\7/5----------|
|-x-x-|-0-0-0-0-0-0-0-0---1-|-0-0-0-0-0-0-0------------------|
|-x-x-|-0-0-0-0-0-0-0-0---1-|-0-0-0-0-0-0-0---3\5/3----------|
|-x-x-|-0-0-0-0-0-0-0-0---1-|-0-0-0-0-0-0-0------------------|

   chorus                             last time
|-----------------|-----------------|-------------------------|
|-------8---------|-------4---------|-----6-------------------|
|----7-----7------|----3-----3------|---5------3^-------------|
|-5-----------5---|-1-----------1---|-3-----------------------|
|-----------------|-----------------|-------------------------|
|-----------------|-----------------|-------------------------|

                              pre solo riff and backin solo riff
|-------------|--------------------|-------------|----------------|
|-------------|--------------------|-------------|----------------|
|-------------|--------------------|-------------|----------------|
|-------------|--------------------|-------------|----------------|
|-------------|--------------------|-------------|----------------|
|-12p10-12-10-|-12p10-12--10-12-13-|12p10-12--10-|12p10-12-10-13--|


|------------|-------------------|-------------|------------------|
|------------|-------------------|-------------|------------------|
|------------|-------------------|-------------|------------------|
|------------|-------------------|-------------|------------------|
|------------|-------------------|-------------|------------------|
|14p12-14-12-|14p12-14-12--14-15-|14p12--14-12-|-14p12--14-12-15--|

|-------------|--------------------|------------------------------|
|-------------|--------------------|------------------------------|
|-------------|--------------------|------------------------------|
|-------------|--------------------|------------------------------|
|-------------|--------------------|------------------------------|
|16p14--16-14-|16p12--16-14-16--17-|16p14--16-14---16p14-16-14-17-|


                            **SOLO**
|--------------------------------------------------------------|
|--------------------------------------------------------------|
|--------------------------------------------------------------|
|-14-12-------14-12-14-12-------14-12-14-12-------14-12-14-12--|
|-------14-12-------------14-12-------------14-12--------------|
|--------------------------------------------------------------|


|--------------------------------------------------------------|
|--------------------------------------------------------------|
|--------------------------------------------------------------|
|-------14-12-14-12-------14-12--------------------------------|
|-14-12-------------14-12-------14-12--------------------------|
|--------------------------------------------------------------|

|--------------------------------------------------------------|
|--------------------------------------------------------------|
|--------------------------------------------------------------|
|-17-14-------17-14-17-14-------17-14-17-14-------17-14-17-14--|
|-------17-14-------------17-14-------------17-14--------------|
|--------------------------------------------------------------|


|--------------------------------------------------------------|
|--------------------------------------------------------------|
|--------------------------------------------------------------|
|-------17-14-17-14-------17-14--------------------------------|
|-17-14-------------17-14-------17-14--------------------------|
|--------------------------------------------------------------|

|--------------------------------------------------------------|
|--------------------------------------------------------------|
|--------------------------------------------------------------|
|-19-17-------19-17-19-17-------19-17-19-17-------19-17-19-17--|
|-------19-17-------------19-17-------------19-17--------------|
|--------------------------------------------------------------|


|--------------------------------------------------------------|
|--------------------------------------------------------------|
|--------------------------------------------------------------|
|-------19-17-19-17-------19-17--------------------------------|
|-19-17-------------19-17-------19-17--------------------------|
|--------------------------------------------------------------|

|-15-12--------------------------------------------------------|
|-------15-12-------15-12----------------------------10~-------|
|-------------15-12-------15-12-------15-12--------------------|
|-------------------------------14-12-------14-12--------------|
|--------------------------------------------------------------|
|--------------------------------------------------------------|

|--------------------------------------------------------------|
|--17FBx2--17FBx2--17FBx2--17FBx2--17FBx2----------------------|
|--------------------------------------------------------------|
|--------------------------------------------------------------|
|--------------------------------------------------------------|
|--------------------------------------------------------------|

|-16---------17-18-------------------------------------------------12FB-|
|---15-----16-----17---------------------------------------12FB/10------|
|-----14-15---------16-16-14--------------------------------9FB---7~----|
|----------------------------16-14~--------14-16--(5x)------------------|
|------------------------------------14-16------------------------------|
|-----------------------------------------------------------------------|
Tap to rate this tab
# A B C D E F G H I J K L M N O P Q R S T U V W X Y Z