Song name
# A B C D E F G H I J K L M N O P Q R S T U V W X Y Z

Black Label Society - Sdmf tab

Artist: Black Label Society
Album: Kings of Damnation
Title: SDMF

Tabbed By: nibot



riff 1  (intro/chorus)

|------x------------------------|------x-------------------------|
|------x------------------------|------x-------------------------|
|------x------------------------|------x-------------------------|
|--4---x------------------------|--4---x-------------------------|
|--2---x--------2-p-0-----------|--2---x-------------------------|
|--0---x---6-5---------3(4)p-0--|--0---x---6-5---3(a.h.)---------|

riff 2  (verse)

|-------------------------------|
|-------------------------------|
|--4---------10---10------------|
|-------------------------------|
|--2---------8----8-------------|
|-------------------------------|
flip toggle switch to rhythm  (F octaves are the accent notes)

riff 3 (before the solo)

|----------------------------------------------------------------------|
|----------------------------------------------------------------------|
|----------------------------------------------------------------------|
|----------------------------------------------------------------------|
|--2-3-2-3-2-3-2-3-2-3-2-3-2-3-2-3-2-3-2-3-2-3-2-3-2-3-2-3--2-2-2-2----|
|-----------------------------------------------------------0-0-0-0----|
                                                            x x x x

riff 4  (behind solo)
        play several times |   last two chords
|----------------------|------------------------------------|
|----------------------|------------------------------------|
|--6-----4--6-----4----|---7---9----------------------------|
|--6-----4--6-----4----|---7---9----------------------------|
|--4-----2--4-----2----|---5---7----------------------------|
|----------------------|-------------/----\-----------------|
   1 2 3 4  1 2 3 4                  slide up and down the neck
Tap to rate this tab
# A B C D E F G H I J K L M N O P Q R S T U V W X Y Z