Song name
# A B C D E F G H I J K L M N O P Q R S T U V W X Y Z

Black Label Society - Crazy Or High tab

Tabbed By: Skull Dragon

Tuning: Eb Ab Db Gb Bb Eb


Intro:
Repeat
|---------------------------------3-------2-----------------|
|--------------1p0h1p0--------------3---------3-------------|
|-----0h2----------------2------------2---------2-----------|
|---------------------------2----------------------0--------|
|--0-------0-------------------0----------------------------|
|-----------------------------------------------------------|



bend (7^) 1 step up 
|--------------------------------------------------------------|
|--------------------------------------------------------------|
|----7^---------5----------------------------------------------|
|----------------------5^--------------------------------------|
|--------------------------------------------------------------|
|--------------------------------------------------------------|


These are just the chords, listen for the rhythm of the song.
You can also use 1st position chords, Ab, Gb, Db, and Cb/(aka B)
|--------------------------------------------------------------|
|--------------------------------------------------------------|
|---------------7----------------7--5--------------------------|
|----7-7--5-7---7-----7-7--5-7---7--5--------------------------|
|----7-7--5-7---5-----7-7--5-7---5--3--------------------------|
|----5-5--3-5---------5-5--3-5---------------------------------|


                                       repeat:  
|-----------------------------------|---------------------------------|
|-----------------------------------|---------------------------------|
|---------------7----------------7--|---------------------------------|
|----7-7--5-7---7-----7-7--5-7---7--|--9-9-9--9-9-9--9-9-9------------|
|----7-7--5-7---5-----7-7--5-7---5--|--7-7-7--7-7-7--7-7-7--7ph--7ph--|
|----5-5--3-5---------5-5--3-5------|--0-0-0--0-0-0--0-0-0------------|









Solo:

                                       
----------------------|-------------------------|
----------------------|--9----10----12----12----|
-----------------7----|-------------------------|
-------6----7---------|-------------------------|
--5-------------------|-------------------------|
----------------------|-------------------------|


                                                                             
----------12-------------12-------|--------------------------------12-|
--15b--------15-12----12----15-12-|-----12----12----12----------15----|
-------------------14b------------|--14b---14b---14b---14r-12~--------|
----------------------------------|-----------------------------------|
----------------------------------|-----------------------------------|
----------------------------------|-----------------------------------|


                                                                           
-17-12----12-17-12---12-17-12----12-17-15-12--------------------------|
-------15---------15----------15-------------15-12---12-17-15-12------|
--------------------------------------------------15------------15-12-|
----------------------------------------------------------------------|
----------------------------------------------------------------------|
----------------------------------------------------------------------|


                                                                           
----------------------------------15-12----12-17-15-12----------------|
-------------15-12----12-17-15-12-------15-------------15-12----12-17-|
-12-15-14-12-------15----------------------------------------15-------|
14--------------------------------------------------------------------|
----------------------------------------------------------------------|
----------------------------------------------------------------------|


                                                                              
------------------------------------|-------------------------|------|
--15-12---------------------15b-----|-------------------------|------|
--------15-12----12-14r-------------|--2~---------------------|------|
--------------14--------------------|-------------------------|------|
------------------------------------|-------------------------|------|
------------------------------------|-------------------------|------|
Tap to rate this tab
# A B C D E F G H I J K L M N O P Q R S T U V W X Y Z