Song name
# A B C D E F G H I J K L M N O P Q R S T U V W X Y Z

Black Label Society - Black Mass Reverands tab

Gtr I (D G C F A D) - 'Main guitar'
Gtr II (D G C F A D) - 'Intro guitar'



    Q=155
   4/4
    Gtr II
||----------------------------------------|
||o---------------------------------------|
||----------------------------------------|
||--------------------------------7-5-----|
||o-5h7-7-7-7-5h7-7-7-7-5h7-7-7-5-----7-5-|
||----------------------------------------|


|-------------------------------------------||
|------------------------------------------o||
|-------------------------------------------||
|-------------------------------7-5---------||
|-5h7-7-7-7-5h7-7-7-7-5h7-7-7-5-----7-5----o||
|-------------------------------------------||


   4/4
    Gtr I
    PM----------------------------|                   ~~~~
||--------------------------------------------------------|
||o-------------------------------------------------------|
||--------------------------------------------------------|
||--------------------------------------------------------|
||o---------------------------------[5]-------------/[5]--|
||--0-0-0-0-0-0-0-0-0-0-0-0-0-0-0-0-----[6]-[5]-[3]-------|


  PM----------------------------|                   ~~~~
                                                           4x
|----------------------------------------------------------||
|---------------------------------------------------------o||
|----------------------------------------------------------||
|----------------------------------------------------------||
|---------------------------------[5]-------------/[5]----o||
|-0-0-0-0-0-0-0-0-0-0-0-0-0-0-0-0-----[6]-[5]-[3]----------||


                         ~~~~~~~~~~~~~~~~~~~~~~
|-----------------------------|-------------------------|
|-----------------------------|-------------------------|
|-7-7-7-7---------------------|-------------------------|
|-7-7-7-7---7-7-7-------------|-------------------------|
|-5-5-5-5---7-7-7-------------|-/7---6---5--------------|
|-----------5-5-5-5b6r===3----|--------------7---6--5---|


                        ~
|----------------------------|
|----------------------------|
|-7-7-7-7--------------------|
|-7-7-7-7---7-7-7------------|
|-5-5-5-5---7-7-7------------|
|-----------5-5-5-5b6r==3----|


    PM----------------------------|                   ~~~~
||--------------------------------------------------------|
||o-------------------------------------------------------|
||--------------------------------------------------------|
||--------------------------------------------------------|
||o---------------------------------[5]-------------/[5]--|
||--0-0-0-0-0-0-0-0-0-0-0-0-0-0-0-0-----[6]-[5]-[3]-------|


  PM----------------------------|                   ~~~~
                                                          3x
|---------------------------------------------------------||
|--------------------------------------------------------o||
|---------------------------------------------------------||
|---------------------------------------------------------||
|---------------------------------[5]-------------/[5]---o||
|-0-0-0-0-0-0-0-0-0-0-0-0-0-0-0-0-----[6]-[5]-[3]---------||


                          ~~~~~~~~~~~~~~~~~~~~~~
||-----------------------------|--------------------------||
||o----------------------------|-------------------------o||
||--7-7-7-7--------------------|--------------------------||
||--7-7-7-7---7-7-7------------|--------------------------||
||o-5-5-5-5---7-7-7------------|-/7---6---5--------------o||
||------------5-5-5-5b6r==3----|--------------7----6--5---||


                        ~
|----------------------------|
|----------------------------|
|-7-7-7-7--------------------|
|-7-7-7-7---7-7-7------------|
|-5-5-5-5---7-7-7------------|
|-----------5-5-5-5b6r==3----|


      ~     ~     ~     ~       ~     ~     ~     ~
||--------------------------|---------------------------||
||o-------------------------|--------------------------o||
||--------------------------|---------------------------||
||--------------------------|---------------------------||
||o-------------------------|--------------------------o||
||--7-7---6-6---5-5---3-3---|-7-7---6-6---5-5---3-3-----||


|---------------------------------|----|
|---------------------------------|----|
|---------------------------------|----|
|---------------------------------|----|
|-7-9-9-7-9-9-7-9-9-7-9-9-7-9-9-9-|----|
|-5-7-7-5-7-7-5-7-7-5-7-7-5-7-7-7-|----|


    PM----------------------------|                   ~~~~
||----------------------------------------------------------|
||o---------------------------------------------------------|
||----------------------------------------------------------|
||----------------------------------------------------------|
||o---------------------------------[5]-------------/[5]----|
||--0-0-0-0-0-0-0-0-0-0-0-0-0-0-0-0-----[6]-[5]-[3]---------|


  PM----------------------------|                   ~~~~
                                                           4x
|----------------------------------------------------------||
|---------------------------------------------------------o||
|----------------------------------------------------------||
|----------------------------------------------------------||
|---------------------------------[5]-------------/[5]----o||
|-0-0-0-0-0-0-0-0-0-0-0-0-0-0-0-0-----[6]-[5]-[3]----------||


                          ~~~~~~~~~~~~~~~~~~~~~
||----------------------------|-------------------------||
||o---------------------------|------------------------o||
||--7-7-7-7-------------------|-------------------------||
||--7-7-7-7---7-7-7-----------|-------------------------||
||o-5-5-5-5---7-7-7-----------|-/7---6---5-------------o||
||------------5-5-5-5b6r==3---|--------------7---6--5---||


                        ~
|----------------------------|
|----------------------------|
|-7-7-7-7--------------------|
|-7-7-7-7---7-7-7------------|
|-5-5-5-5---7-7-7------------|
|-----------5-5-5-5b6r==3----|


      ~     ~     ~     ~        ~     ~     ~     ~
||---------------------------|--------------------------||
||o--------------------------|-------------------------o||
||---------------------------|--------------------------||
||---------------------------|--------------------------||
||o--------------------------|-------------------------o||
||--7-7---6-6---5-5---3-3----|-7-7---6-6---5-5---3-3----||


Tap to rate this tab
# A B C D E F G H I J K L M N O P Q R S T U V W X Y Z